Enviar cifraEntrar

Enquanto Eu Viver

Diante do Trono

Cifra: Principal
exibições 105.983
Tom: B
Intro:


          B9                                G#m7            E9
E|--------------2------------------------------2------------------------------|
B|----------------4-2-4-2------------------------4-2-4-2----------------------|
G|-----4-4-4-4-------------------------4-4-4-4--------------------------------|
D|----------------------------------------------------------------------------|
A|----------------------------------------------------------------------------|
E|----------------------------------------------------------------------------|


(Riff 1)
       B9
Cantarei Teus louvores pra Tua Glória

(Riff 2)

  G#m7               E9
Enquanto eu viver, enquanto eu viver

(riff 1)
       B9
Contarei Tua história pra Tua Glória

(riff 2)                                (riff 3)

    G#m7             E9                   B9 F#
Enquanto eu viver, enquanto eu viver sou Teu

(riff 2)           (riff 3)        (riff 2)

C#m7      E9             B9 F#  C#m7     E9
Oh, oh, oh, oh, oh,  sou Teu    oh, oh, oh, oh, oh

  (riff 1)

E|------------------------------------------------------------------------|
B|------7-----7---7------7----7----7--------------------------------------|
G|---4-4---4-4---4----4-4--4-4---4----------------------------------------|
D|------------------------------------------------------------------------|
A|------------------------------------------------------------------------|
E|------------------------------------------------------------------------|


(riff 2)


E|-------------------------------------------------------------------|
B|-------------------------------------------------------------------|
G|---6/8/6--4------6/8/6--4------------------------------------------|
D|-------------6-------------6---------------------------------------|
A|-------------------------------------------------------------------|
E|-------------------------------------------------------------------|

(riff 3)


E|------------------------------------------------------------------|
B|-------7----7--7----------7---7-----------------------------------|
G|---4-4---4-4---4--3-3---3-3---3-----------------------------------|
D|------------------------------------------------------------------|
A|------------------------------------------------------------------|
E|------------------------------------------------------------------|


 B9                           E9
Cada instante pra Tua glória
                      G#m
Todo o tempo louvarei
                      E9
Pela Tua graça eu viverei

(2° estrofe)

B9                       E9
As batidas do meu peito
                         G#m
Querem conhecer-te mais

Meu salvador, eu vou mostrar
           E9
Que és o Deus que satisfaz

(fazer esse riff durante a 2° estrofe)

(riff 4)


E|------------------------------------------------------------------|
B|----12-11-------------------12-11---------------------------------|
G|----------13-11-------------------13-11---------------------------|
D|-----------------13-11-9-11-------------13-11-9-11----------------|
A|------------------------------------------------------------------|
E|------------------------------------------------------------------|


B9
Cantarei Teus louvores pra Tua Glória
     G#m7             E9
Enquanto eu viver, enquanto eu viver
B9
Contarei Tua história pra Tua Glória
    G#m7            E9                   B9         F# (riff3)
Enquanto eu viver, enquanto eu viver sou Teu

(durante o refrão)


E|-------14-------14----14-------14-------14---------------------------------------------|
B|-12-12----12-12----12----12-12----12-12----12--14/16-------------14/16-----------------|
G|-----------------------------------------------------18-16-------------18-16-----------|
D|-----------------------------------------------------------18-18-------------18--------|
A|---------------------------------------------------------------------------------------|
E|---------------------------------------------------------------------------------------|


(riff 2)              (riff 3)    (riff 2)

 C#m7        E9         B9 F#     C#m7 E9
Oh, oh, oh, oh,    sou Teu

B9                            E9
Cada instante pra Tua glória
                       G#m
Todo o tempo louvarei
                     E9
Pela Tua graça eu viverei

(riff 4)

B9                       E9
As batidas do meu peito
                        G#m
Querem conhecer-te mais

Meu salvador, eu vou mostrar
          E9
Que és o Deus que satisfaz

B9
Cantarei Teus louvores pra Tua Glória
     G#m7              E9
Enquanto eu viver, enquanto eu viver
B9
Contarei Tua história pra Tua Glória
    G#m7               E9                 B9
Enquanto eu viver, enquanto eu viver sou Teu

(durante o refrão)


E|-------14-------14----14-------14-------14---------------------------------------------|
B|-12-12----12-12----12----12-12----12-12----12--14/16-------------14/16-----------------|
G|-----------------------------------------------------18-16-------------18-16-----------|
D|-----------------------------------------------------------18-18-------------18--------|
A|---------------------------------------------------------------------------------------|
E|---------------------------------------------------------------------------------------|


E9
Vivo para Te louvar
G#m7
O Teu nome exaltar
B9                   F#
Quero o Teu amor irradiar
E9
Vivo para Te louvar
G#m7
O Teu nome exaltar
B9                    F#
Quero o Teu amor irradiar

B9
Cantarei Teus louvores pra Tua Glória
     G#m7              E9
Enquanto eu viver, enquanto eu viver
B9
Contarei Tua história pra Tua Glória
    G#m7               E9
Enquanto eu viver, enquanto eu viver

B9
Cantarei Teus louvores pra Tua Glória
     G#m7              E9
Enquanto eu viver, enquanto eu viver
B9
Contarei Tua história pra Tua Glória
    G#m7              E9                  B9
Enquanto eu viver, enquanto eu viver sou teu

(durante o refrão)


E|-------14-------14----14-------14-------14---------------------------------------------|
B|-12-12----12-12----12----12-12----12-12----12--14/16-------------14/16-----------------|
G|-----------------------------------------------------18-16-------------18-16-----------|
D|-----------------------------------------------------------18-18-------------18--------|
A|---------------------------------------------------------------------------------------|
E|---------------------------------------------------------------------------------------|


F#
sou Teu
 C#m7        E9         B9 F#         C#m7           E9        B9
Oh, oh, oh, oh,    sou Teu            oh, oh, oh, oh, oh  Sou teu!

Final:


E|------------------------------------------------------------------------|
B|------7-----7---7------7----7----7--------------------------------------|
G|---4-4---4-4---4----4-4--4-4---4----------------------------------------|
D|------------------------------------------------------------------------|
A|------------------------------------------------------------------------|
E|------------------------------------------------------------------------|


E|-------14-------14-------------14-------14---------------------------------------------|
B|-12-12----12-12----12-12-11-11----11-11------11--14/16-------------14/16---------------|
G|-------------------------------------------------------18-16-------------18-16---------|
D|-------------------------------------------------------------18-18-------------18------|
A|---------------------------------------------------------------------------------------|
E|---------------------------------------------------------------------------------------
  • 1
  • 2
  • 3
  • 4
  • 5
  • 6
  • 7
  • 8
  • 9
  • 10
  • 11
  • 12
    Acordes para:
      Composição: Klaus KuehnColaboração e revisão:

      0 comentários

        mostrar mais comentários

        Conseguiu tocar?

        7tocaram0ainda não

        Grave um vídeo tocando Enquanto Eu Viver e mande pra gente!

        00:00 / 00:00
        outros vídeos desta música
        repetirqualidadeautomática
        • automática
        Outro vídeos desta música
          00:00 / 00:00
          automática
          • automática
          Acordes para:violão e guitarra
          dificuldadeexibiçõescontribuições
          1 versão de Guitar Proformatodownloadscontribuição
          fecharplay/pause subir/descer velocidade
            acordes
            fechar
            OK
            Feedback