Cifra Club

Aprenda

Vinho Novo

Diante do Trono

Cifra: Principal (violão e guitarra)
tom: A
Intro:  F#m

        F#m7                  Asus4   A
Unção fresca sobre a minha cabeça
          F#m7        A          E4    E
Como as misericórdias   que se renovam
        F#m        D/F#
Um vaso novo moldado por Tuas mãos
        F#m            D/F#
Tecido novo, refaz meu coração
        F#m D7M           Bm7    A            Esus4   E
Um odre novo    pra suportar o peso de Tua Glória

       A                  Esus4   E
Vinho novo, eu sei que tens mais
      A/C#       D            Esus4   E
Teu renovo, meu cálice transborda
       A                  Esus4   E
Vinho novo, eu sei que tens mais
      A/C#       D            Esus4   E
Teu renovo, meu cálice transborda

Reintro: F#m7

        F#m7                  Asus4   A
Unção fresca sobre a minha cabeça
          F#m7        A          E4    E
Como as misericórdias   que se renovam
        F#m        D/F#
Um vaso novo moldado por Tuas mãos
        F#m            D/F#
Tecido novo, refaz meu coração
        F#m D7M           Bm7    A            Esus4   E
Um odre novo    pra suportar o peso de Tua Glória

       A                  Esus4   E
Vinho novo, eu sei que tens mais
      A/C#       D            Esus4   E
Teu renovo, meu cálice transborda
       A                  Esus4   E
Vinho novo, eu sei que tens mais
      A/C#       D            Esus4   E
Teu renovo, meu cálice transborda

Instrumental: A/C#  D  Esus4  E

     E D A/C#    D           D
E|-------------------------------------------------
B|-------------------------------------------------
G|-9-7-6-6-6-6-7-9-11-11-11-16-14-13-13-13---------
D|-------------------------------------------------
A|-7-5-4-4-4-4-5-7-9--9--9--14-12-11-11-11---------
E|-------------------------------------------------

     E4                   E
E|-9----------9----------9------14----------------------------
B|--10-9-------10-9--------10-9-------------------------------
G|-------9----------9-----------------------------------------
D|---------11---------11--------------------------------------
A|------------------------------------------------------------
E|------------------------------------------------------------

     E D A/C#    D           D
E|-------------------------------------------------
B|-------------------------------------------------
G|-9-7-6-6-6-6-7-9-11-11-11-16-14-13-13-13---------
D|-------------------------------------------------
A|-7-5-4-4-4-4-5-7-9--9--9--14-12-11-11-11---------
E|-------------------------------------------------

     E4                  E
E|----------------------------------12-17-16-12-14-14~~~~----------
B|-------------------------12-14-15--------------------------------
G|----------------11-13-14-----------------------------------------
D|-------11-12-14--------------------------------------------------
A|-12-14-----------------------------------------------------------
E|-----------------------------------------------------------------

(subida - escala de A maior)

F#m7        A          D7M
Teu segundo vinho é melhor
F#m7         A         D7M   Bm7
A segunda glória é maior
F#m7        A          D7M
Teu segundo vinho é melhor
F#m7         A         D7M   Bm7   E
A segunda glória é maior

       A                  Esus4   E
Vinho novo, eu sei que tens mais
      A/C#       D            Esus4   E
Teu renovo, meu cálice transborda
       A                  Esus4   E
Vinho novo, eu sei que tens mais
      A/C#       D            Esus4   E
Teu renovo, meu cálice transborda

         A/C#    D           D
E|-------------------------------------------------
B|-------------------------------------------------
G|-9-7-6-6-6-6-7-9-11-11-11-16-14-13-13-13---------
D|-------------------------------------------------
A|-7-5-4-4-4-4-5-7-9--9--9--14-12-11-11-11---------
E|-------------------------------------------------

     E4                   E
E|-9---------------------9------14----------------------------
B|--10-9------10-10-9--------10-9-------------------------------
G|-------9----------9-----------------------------------------
D|---------11---------11--------------------------------------
A|------------------------------------------------------------
E|------------------------------------------------------------

     E D A/C#    D           D
E|-------------------------------------------------
B|-------------------------------------------------
G|-9-7-6-6-6-6-7-9-11-11-11-16-14-13-13-13---------
D|-------------------------------------------------
A|-7-5-4-4-4-4-5-7-9--9--9--14-12-11-11-11---------
E|-------------------------------------------------

     E4                  E
E|----------------------------------12-17-16-12-14-14~~~~----------
B|-------------------------12-14-15--------------------------------
G|----------------11-13-14-----------------------------------------
D|-------11-12-14--------------------------------------------------
A|-12-14-----------------------------------------------------------
E|-----------------------------------------------------------------

F#m
Composição de Ana Paula Valadão
Colaboração e revisão:
39.024 exibições
    • ½ Tom
    • A
    • Bb
    • B
    • C
    • Db
    • D
    • Eb
    • E
    • F
    • F#
    • G
    • Ab
  • Adicionar à lista

    0 comentários

    Ver todos os comentários
    00:00 / 00:00
    Outros vídeos desta música
    Repetir Qualidade Automático
    Outros vídeos desta música
    00:00 / 00:00
    Automático

    Cifra Club Pro

    Aproveite o Cifra Club com benefícios exclusivos e sem anúncios
    Cifra Club Pro
    Aproveite o Cifra Club com benefícios exclusivos e sem anúncios
    OK