Cifra Club

Muda Timidez

DiaZepunK

Cifra: Principal (violão e guitarra)
tom: Bbm
E|------------------------------------------------------------|
B|------------------------------------------------------------|
G|------------------------------------------------------------|
D|------------------------------4-3-----4-3-----4-3-----4-3---|
A|----1-4----1-4----1-4----1-4-----4-2-----4-2-----4-2----4-2-|
E|-2-4----2-4----2-4----2-4-----------------------------------|

   Gb5                          B5
E|------------------------------------------------------------|
B|------------------------------------------------------------|
G|------------------------------------------------------------|
D|------------------------------4-3-----4-3-----4-3-----4-3---|
A|----1-4----1-4----1-4----1-4-----4-2-----4-2-----4-2----4-2-|
E|-2-4----2-4----2-4----2-4-----------------------------------|

   Gb5                          B5
E|------------------------------------------------------------|
B|------------------------------------------------------------|
G|------------------------------------------------------------|
D|------------------------------4-3-----4-3-----4-3-----4-3---|
A|----1-4----1-4----1-4----1-4-----4-2-----4-2-----4-2----4-2-|
E|-2-4----2-4----2-4----2-4-----------------------------------|

Gb5
Demonios enfurecidos abriendo
B5
a golpes las puertas de esta ciudad
E|------------------------------------------------------------|
B|------------------------------------------------------------|
G|-4-4-3-3-3---4-4-3-3-3--------------------------------------|
D|-4-4-4-4-4---4-4-4-4-4--------------------------------------|
A|-2-2-2-2-2---2-2-2-2-2--------------------------------------|
E|------------------------------------------------------------|

Gb5
Fugitivos en un auto ajeno y
B5
en venada a toda velocidad
E|------------------------------------------------------------|
B|------------------------------------------------------------|
G|-4-4-3-3-3---4-4-3-3-3--------------------------------------|
D|-4-4-4-4-4---4-4-4-4-4--------------------------------------|
A|-2-2-2-2-2---2-2-2-2-2--------------------------------------|
E|------------------------------------------------------------|

          Gb5
Dejando atrás la ciudad destrozada
E|------------------------------------------------------------|
B|------------------------------------------------------------|
G|-11-11-10-10-10---11-11-13-11-------------------------------|
D|-11-11-11-11-11---11-11-11-11-------------------------------|
A|-9--9--9--9--9----9--9--9--9--------------------------------|
E|------------------------------------------------------------|

          B5
Gritando al viento sin pensar en frenar
E|------------------------------------------------------------|
B|------------------------------------------------------------|
G|-4-4-3-3-3---4-4-3-3-3--------------------------------------|
D|-4-4-4-4-4---4-4-4-4-4--------------------------------------|
A|-2-2-2-2-2---2-2-2-2-2--------------------------------------|
E|------------------------------------------------------------|

          Gb5
Sabiendo que el amanecer mañana
E|------------------------------------------------------------|
B|------------------------------------------------------------|
G|-11-11-10-10-10---11-11-13-11-------------------------------|
D|-11-11-11-11-11---11-11-11-11-------------------------------|
A|-9--9--9--9--9----9--9--9--9--------------------------------|
E|------------------------------------------------------------|

       B5
Será razón para volver a empezar
E|------------------------------------------------------------|
B|------------------------------------------------------------|
G|-4-4-3-3-3---4-4-3-3-3--------------------------------------|
D|-4-4-4-4-4---4-4-4-4-4--------------------------------------|
A|-2-2-2-2-2---2-2-2-2-2--------------------------------------|
E|------------------------------------------------------------|


     Eb5                   Gb5
     ¿Quien nos podrá culpar?
E|------------------------------------------------------------|
B|------------------------------------------------------------|
G|-8~-----------11-/15-15~------/12-11~-----------------------|
D|------------------------------------------------------------|
A|-6~-----------9--/13-13~------------------------------------|
E|------------------------------------------------------------|

Eb5                   Gb5         G#5            Gb5
Por enfrentar a esta ciudad solos, una y otra vez
E|------------------------------------------------------------|
B|------------------------------------------------------------|
G|-8~-----------11/13-11-13/15~-------------------------------|
D|------------------------------------------------------------|
A|-6~-----------9-/11-9--11/13~-------------------------------|
E|------------------------------------------------------------|


Gb5
Cada curva en el camino
         B5
me incomoda al hacerme pensar
E|------------------------------------------------------------|
B|------------------------------------------------------------|
G|-4-4-3-3-3---4-4-3-3-3--------------------------------------|
D|-4-4-4-4-4---4-4-4-4-4--------------------------------------|
A|-2-2-2-2-2---2-2-2-2-2--------------------------------------|
E|------------------------------------------------------------|

Gb5
Seguirás aquí conmigo
         B5
cuando el destino nos obligue a parar
E|------------------------------------------------------------|
B|------------------------------------------------------------|
G|-4-4-3-3-3---4-4-3-3-3--------------------------------------|
D|-4-4-4-4-4---4-4-4-4-4--------------------------------------|
A|-2-2-2-2-2---2-2-2-2-2--------------------------------------|
E|------------------------------------------------------------|

               Gb5
Si además de mil recuerdos felices
E|------------------------------------------------------------|
B|------------------------------------------------------------|
G|-11-11-10-10-10---11-11-13-11-------------------------------|
D|-11-11-11-11-11---11-11-11-11-------------------------------|
A|-9--9--9--9--9----9--9--9--9--------------------------------|
E|------------------------------------------------------------|

               B5
Mis historias tristes acompañadas
E|------------------------------------------------------------|
B|------------------------------------------------------------|
G|-4-4-3-3-3---4-4-3-3-3--------------------------------------|
D|-4-4-4-4-4---4-4-4-4-4--------------------------------------|
A|-2-2-2-2-2---2-2-2-2-2--------------------------------------|
E|------------------------------------------------------------|

          Gb5
Cuando sólo nos quede el silencio,
E|------------------------------------------------------------|
B|------------------------------------------------------------|
G|-11-11-10-10-10---11-11-13-11-------------------------------|
D|-11-11-11-11-11---11-11-11-11-------------------------------|
A|-9--9--9--9--9----9--9--9--9--------------------------------|
E|------------------------------------------------------------|

            B5
Y apague el sol las luces de la ciudad
E|------------------------------------------------------------|
B|------------------------------------------------------------|
G|-4-4-3-3-3---4-4-3-3-3--------------------------------------|
D|-4-4-4-4-4---4-4-4-4-4--------------------------------------|
A|-2-2-2-2-2---2-2-2-2-2--------------------------------------|
E|------------------------------------------------------------|


     Eb5                   Gb5
     ¿Quien nos querrá culpar?
E|------------------------------------------------------------|
B|------------------------------------------------------------|
G|-8~-----------11-/15-15~------/12-11~-----------------------|
D|------------------------------------------------------------|
A|-6~-----------9--/13-13~------------------------------------|
E|------------------------------------------------------------|

Eb5                   Gb5         G#5         Gb5
Por enfrentar este lugar solos, una y otra vez
E|------------------------------------------------------------|
B|------------------------------------------------------------|
G|-8~-----------11/13-11-13/15~-------------------------------|
D|------------------------------------------------------------|
A|-6~-----------9-/11-9--11/13~-------------------------------|
E|------------------------------------------------------------|

Gb5         B5             Gb5               B5
Una y otra vez, una y otra vez, una y otra vez
E|------------------------------------------------------------|
B|------------------------------------------------------------|
G|-----4-4-3-3-3---4-4-3-3-3------------4-4-3-3-3---4-4-3-3-3-|
D|-----4-4-4-4-4---4-4-4-4-4------------4-4-4-4-4---4-4-4-4-4-|
A|-----2-2-2-2-2---2-2-2-2-2------------2-2-2-2-2---2-2-2-2-2-|
E|------------------------------------------------------------|

Solo:

    Eb5          Gb5          Eb5              Gb5
E|-11--11--------11--11------14------13------11----13b-11-----|
B|-14b-14b-14p11h14b-14b--/11--11--9----9--7----7-------------|
G|------------------------------------------------------------|
D|------------------------------------------------------------|
A|------------------------------------------------------------|
E|------------------------------------------------------------|

    Eb5          Gb5          G#5       Db5 Eb5 F5 Gb5
E|--14b-11/9----------9-------14p11p9-(x4)--------------------|
B|-----------11-9-9-----9--------------------/14--12--11/19~--|
G|----------------11b----11-----------------------------------|
D|------------------------------------------------------------|
A|------------------------------------------------------------|
E|------------------------------------------------------------|


Gb5
Solo brevemente sabemos ser, somos lo que encontré
E|------------------------------------------------------------|
B|------------------------------------------------------------|
G|-----------------------------3~-----------------------------|
D|--------------------------4---------------------------------|
A|-----------------------2------------------------------------|
E|------------------------------------------------------------|

En pedazos de una historia que aún escribimos tu y yo
E|------------------------------------------------------------|
B|------------------------------------------------------------|
G|--------3~-------------------3~-----------------------------|
D|-----4--------------------4-----4-3-------------------------|
A|-----------------------2------------4~----------------------|
E|--2---------------------------------------------------------|

Volver a aparecer si es que aún se esconde
E|------------------------------------------------------------|
B|------------------------------------------------------------|
G|--------3~-----3~------------3~--------3~-------------------|
D|-----4-------4------------4----------4----------------------|
A|-----------------------2----------2-------------------------|
E|--2--------2------------------------------------------------|

Esa complicidad que compartimos tu y yo
E|------------------------------------------------------------|
B|------------------------------------------------------------|
G|--------3~-----3~-------------------------------------------|
D|-----4-------4----------------------------------------------|
A|-----------------------2-2---2---2---2---2---2--------------|
E|--2--------2---------------2---2---2---2---2---2------------|


     Eb5                   Gb5
     ¿Quien nos podrá culpar?
E|------------------------------------------------------------|
B|------------------------------------------------------------|
G|-8~-----------11-/15-15~------/12-11~-----------------------|
D|------------------------------------------------------------|
A|-6~-----------9--/13-13~------------------------------------|
E|------------------------------------------------------------|

Eb5                   Gb5         G#5        Gb5
Por enfrentar a este lugar solos, una y otra vez
E|------------------------------------------------------------|
B|------------------------------------------------------------|
G|-8~-----------11/13-11-13/15~-------------------------------|
D|------------------------------------------------------------|
A|-6~-----------9-/11-9--11/13~-------------------------------|
E|------------------------------------------------------------|

Gb5         B5             Gb5               B5
Una y otra vez, una y otra vez, una y otra vez
E|------------------------------------------------------------|
B|------------------------------------------------------------|
G|-----4-4-3-3-3---4-4-3-3-3---------4-4-3-3-3---4-4-3-3-3----|
D|-----4-4-4-4-4---4-4-4-4-4---------4-4-4-4-4---4-4-4-4-4----|
A|-----2-2-2-2-2---2-2-2-2-2---------2-2-2-2-2---2-2-2-2-2----|
E|------------------------------------------------------------|

    Gb5         B5          Gb5
E|------------------------------------------------------------|
B|------------------------------------------------------------|
G|--------3~-------3~------------3~------3~-------------------|
D|-----4---------4---4-3-------4-------4----------------------|
A|-------------2---------4~----------2------------------------|
E|--2------------------------2--------------------------------|

E|--------*/.)------|
B|-------*/.|-------|
G|------*/..|-------|
D|-----*(---)-------|
A|-------|-|--------|
E|-------|-|--------|
E|-------| =|--------
B|-------| =|--------
G|-------| =|---Manu-
D|-------| =|--------
A|---/---| =|--------
__/#|__|=|___/___
_(##(..|=|__)##)__
__###/_|=|_/##/___
___##)#____.#(____
___ )#/#____##___
E|---/| #|##----###--
__(###___######)_
E|---(| ###########)--
B|----(| #########)---
Compositor não encontrado.
    • ½ Tom
    • Am
    • Bbm
    • Bm
    • Cm
    • C#m
    • Dm
    • Ebm
    • Em
    • Fm
    • F#m
    • Gm
    • G#m
  • Adicionar à lista

    0 comentários

    Ver todos os comentários

    Conseguiu tocar?

    0 Tocaram 0 Ainda não

    Grave um vídeo tocando Muda Timidez e nos envie!

    00:00 / 00:00
    Outros vídeos desta música
    Repetir Qualidade Automático
    Outros vídeos desta música
    00:00 / 00:00
    Automático

    Cifra Club Pro

    Aproveite o Cifra Club com benefícios exclusivos e sem anúncios
    Cifra Club Pro
    Aproveite o Cifra Club com benefícios exclusivos e sem anúncios
    OK