Cifra Club

Si no te olvidas de mí

DiaZepunK

Cifra: Principal (violão e guitarra)
tom: Em
E|-------------------------------------------|

1ra guitarra:  *****

   G5*  D5*  E5*   G5*  C5*  B5*   G5*
E|------------------------------------------|
B|------------------------------------------|
G|-12*---5*---7*---12*---5*---4*---12*------|
D|--x*---x*---x*----x*---x*---x*---x-*------|
A|-10*---7*---9*---10*---3*---2*---10*------|
E|------------------------------------------|

E|-------------------------------------------|_______________________________

[Intro]

   G5 D5      Em         C5        B5       E5            D5
E|-------------------------------------------------------------------------|
B|-------------------------------------------------------------------------|
G|-7/12*-11*--11/12/11--9-7-9-7*---7/12*--11/12-14-12-11--11/12/11-9-7-9-7-|
D|-x/-x*--x*---x/-x/-x--x-x-x-x*---x/-x*---x/-x--x--x--x---x/-x/-x-x-x-x-x-|
A|-5/10*--9*---9/10/-9--7-5-7-5*---5/10*---9/10-12-10--9---9/10/-9-7-5-7-5-|
E|-------------------------------------------------------------------------|


     G5                D5
quizas no tenga mucho que ofrecer____
     Em                 C5           |
pero lo que ofrezco es real          | 1ra guitar
      B5           E5   [1] D5       |
tan real como siempre debio ser  ____|
         G5                D5
siempre habran mañanas llenas de sol_
   Em                    C5          |
en alguna vez despiertos tu y yo     | 1ra guitar
  B5                E5        [1] D5 |
sonriendo diras no sabes lo que soñe_|

[Coro]

     C5                D5
cuidare de tus sueños hasta el amancer
        C5           D5
viendo como sale el sol
  [2]       C5                D5
tu rostro en silencio entre esos sueños besare
         C5          [3] D5     D5
con tiernos besos de amor, si no te olvidas de mi

   G5 D5      B5         C5        B5       E5            D5
E|-------------------------------------------------------------------------|
B|-------------------------------------------------------------------------|
G|-7/12*-11*--11/12/11--9-7-9-7*---7/12*--11/12-14-12-11--11/12/11-9-7-9-7-|
D|-x/-x*--x*---x/-x/-x--x-x-x-x*---x/-x*---x/-x--x--x--x---x/-x/-x-x-x-x-x-|
A|-5/10*--9*---9/10/-9--7-5-7-5*---5/10*---9/10-12-10--9---9/10/-9-7-5-7-5-|
E|-------------------------------------------------------------------------|

[Verso]
          G5              D5
siempre habran tardes por la ciudad _______________
  Em                         C5                    |
en la que alguna vez a toda voz me pondre a cantar | 1ra guitar
    B5       E5      [1] D5                        |
te vez tan bien al sonreir ________________________|
         G5                  D5
no me importa si piensan que estamos locos ________
 Em        C5                                      |
si estamos bien                                    | 1ra guitar
 B5                 E5       [1] D5                |
sabias que contigo yo aprendi a vivir _____________|

[Coro]

  C5                       D5
Fideos en salsa roja y una pela en la tv
     C5            D5
abrazados en el sillon
  [2] C5                    D5
tendremos siempre tantas, tantas cosas que hacer
            C5      [3] D5  D5
seremos siempre tu y yo, si no te olvidas de mi

   G5 D5      B5         C5        B5       E5            D5
E|-------------------------------------------------------------------------|
B|-------------------------------------------------------------------------|
G|-7/12*-11*--11/12/11--9-7-9-7*---7/12*--11/12-14-12-11--11/12/11-9-7-9-7-|
D|-x/-x*--x*---x/-x/-x--x-x-x-x*---x/-x*---x/-x--x--x--x---x/-x/-x-x-x-x-x-|
A|-5/10*--9*---9/10/-9--7-5-7-5*---5/10*---9/10-12-10--9---9/10/-9-7-5-7-5-|
E|-------------------------------------------------------------------------|

[Solo]

E|-----------------------------------------------|
B|-----------------------------------------------|
G|-----------------------------------------------|
D|--------4-5-4-------------4-5-4-7-5------------|
A|---5--5-------5------5--5----------------------|
E|-----------------------------------------------|

E|-----------------------------------------| <10>--|
B|----------------5-7-8-7-5-----8h10-8-10--------|
G|----------4-5-7-----------7--------------------|
D|---4-5-7---------------------------------------|
A|-5---------------------------------------------|
E|-----------------------------------------------|

E|-------10----10h12-10^---10h12-15-17-17h15-17^-17---------|
B|-10h12----12----------------------------------------------|
G|----------------------------------------------------------|
D|----------------------------------------------------------|
A|----------------------------------------------------------|
E|----------------------------------------------------------|

E|--15h12----12---------------------------------------------|
B|--------15----12-15h12-----12-----------------------------|
G|------------------------15----15-13-15-15h17-15-13h15-13--|
D|----------------------------------------------------------|
A|----------------------------------------------------------|
E|----------------------------------------------------------|

[Coro]
           C5                        D5
quizas en algun momento con el tiempo a nuestro favor
           C5             D5
podamos al fin volvernos a ver
    [2] C5                           D5
repetire ese mismo beso torpe y sincero a la ves
            C5         [3] D5       D5
que intento unirnos para siempre, si no te olvidas de mi


   G5 D5      B5         C5        B5       E5            D5
E|-------------------------------------------------------------------------|
B|-------------------------------------------------------------------------|
G|-7/12*-11*--11/12/11--9-7-9-7*---7/12*--11/12-14-12-11--11/12/11-9-7-9-7-|
D|-x/-x*--x*---x/-x/-x--x-x-x-x*---x/-x*---x/-x--x--x--x---x/-x/-x-x-x-x-x-|
A|-5/10*--9*---9/10/-9--7-5-7-5*---5/10*---9/10-12-10--9---9/10/-9-7-5-7-5-|
E|-------------------------------------------------------------------------|

E|-------------------------------------------|___________________________

NOTA:

*  = Rasgar Nota
<> = Harmonico
B  = Bend
v  = Vivrato
/  = Slide

                 [1]
E|--------------------12-15b------|
B|--------------13-15-------------|
G|-12-12-14-15--------------------|
D|--------------------------------|
A|--------------------------------|
E|--------------------------------|

                 [2]
E|--------------------------------|
B|-------------5-7-5--------------|
G|---------6-8-------8-6----------|
D|-5-5-6-8---------------8-6------|
A|--------------------------------|
E|--------------------------------|

E|--------------------------------|
B|-------------5-7-8-7------------|
G|---------6-8---------8-6--------|
D|-5-5-6-8-----------------8-6----|
A|--------------------------------|
E|--------------------------------|

E|--------------------------------|
B|-------------5-7-5--------------|
G|---------6-8-------8-6----------|
D|-5-5-6-8---------------8-6------|
A|--------------------------------|
E|--------------------------------|

                 [3]
E|--------------------------------|
B|--------------------5-7-| <8v>----|
G|--------------6--8--------------|
D|--5--5--6--8--------------------|
A|--------------------------------|
E|--------------------------------|
Composição de Diazepa
    • ½ Tom
    • Am
    • Bbm
    • Bm
    • Cm
    • C#m
    • Dm
    • Ebm
    • Em
    • Fm
    • F#m
    • Gm
    • G#m
  • Adicionar à lista

    0 comentários

    Ver todos os comentários

    Conseguiu tocar?

    0 Tocaram 0 Ainda não

    Grave um vídeo tocando Si no te olvidas de mí e nos envie!

    00:00 / 00:00
    Outros vídeos desta música
    Repetir Qualidade Automático
    Outros vídeos desta música
    00:00 / 00:00
    Automático

    Cifra Club Pro

    Aproveite o Cifra Club com benefícios exclusivos e sem anúncios
    Cifra Club Pro
    Aproveite o Cifra Club com benefícios exclusivos e sem anúncios
    OK