Cifra Club

Tráfico

DiaZepunK

Cifra: Principal (violão e guitarra)
tom: Bm
E|-----------------------------------------------------|
B|-----------------------------------------------------|
G|-------------------------------------------11-9-7----| (x2)
D|----------7------77777777-------------7----11-9-7----|
A|------7-9--------77777777---------7-9------9--7-5----|
E|--7-9------------55555555-----7-9--------------------|

(00:11)
E|------|
B|------|
G|------|
D|--6~--|
A|--6~--|
E|--4~--|


(00:13)
PM.......................................
E|-----------------------------------------------------|
B|-----------------------------------------------------|
G|-------------------------------------------11-9-7----| (x3)
D|----------7------77777777-------------7----11-9-7----|
A|------7-9--------77777777---------7-9------9--7-5----|
E|--7-9------------55555555-----7-9--------------------|

(00:28)
E|---------------------|
B|---------------------|
G|---------------------| (x6)
D|--7-x-x---2-x-2-5----|
A|--7-x-x---2-x-2-5----|
E|--5-x-x---0-x-0-3----|

(00:39)
E|---------------------------------|
B|---------------------------------|
G|--9--------12--------10----------| (x2)
D|--x-(x24)--12-(x24)--10-(x24)----|
A|--7--------10--------8-----------|
E|---------------------------------|

(01:08)
E|---------------------|
B|---------------------|
G|---------------------| (x6)
D|--7-x-x---2-x-2-5----|
A|--7-x-x---2-x-2-5----|
E|--5-x-x---0-x-0-3----|

(01:19)
E|---------------------------------|
B|---------------------------------|
G|--9--------12--------10----------| (x2)
D|--x-(x24)--12-(x24)--10-(x24)----|
A|--7--------10--------8-----------|
E|---------------------------------|


(Aki empieza una parte n la q si escuchan
 atentamnt solo se toca el bajo)

(01:50)
E|-------------------------|
B|-------------------------|
G|-------------------------| (x2)
D|-------------------------|
A|-----3-0-2-----3-2-------|
E|---5-------3-5-----3-----|


(Luego empieza la misma secuencia con el bajo
 pero junto con otro sonido q no tngo idea
 d q diablos sera)


(01:55)
E|-------------------------|
B|-------------------------|
G|-------------------------| (x5)
D|-------------------------|
A|-----3-0-2-----3-2-------|
E|---5-------3-5-----3-----|


(02:09 - 02:14)<----no me la saq xD


(02:14)
E|-----------------------------------------------------|
B|-----------------------------------------------------|
G|-----------------------------------------------------| (x3)
D|-----------------------------------------------------|
A|--7--5--3--2---2-3------7--5--2-3-7-5-3--------------|
E|-----------------------------------------------------|

(02:31)
E|-----------------------|
B|-----------------------|
G|-----------------------|
D|-----------------------|
A|--7--5--3--2---2-3~----|
E|-----------------------|

(02:36)
E|---------------------------------|
B|---------------------------------|
G|--9--------12--------10----------| (x2)
D|--x-(x24)--12-(x24)--10-(x24)----|
A|--7--------10--------8-----------|
E|---------------------------------|

Termina asi:
E|--------|
B|--------|
G|--10~---|
D|--10~---|
A|--8~----|
E|--------|
Composição de Giancarlo H.
    • ½ Tom
    • Am
    • Bbm
    • Bm
    • Cm
    • C#m
    • Dm
    • Ebm
    • Em
    • Fm
    • F#m
    • Gm
    • G#m
  • Adicionar à lista

    0 comentários

    Ver todos os comentários

    Conseguiu tocar?

    0 Tocaram 0 Ainda não

    Grave um vídeo tocando Tráfico e nos envie!

    00:00 / 00:00
    Outros vídeos desta música
    Repetir Qualidade Automático
    Outros vídeos desta música
    00:00 / 00:00
    Automático

    Cifra Club Pro

    Aproveite o Cifra Club com benefícios exclusivos e sem anúncios
    Cifra Club Pro
    Aproveite o Cifra Club com benefícios exclusivos e sem anúncios
    OK