Cifra Club

Aprenda

Hunter

Dido

Tab de baixo: Principal
g-------------|------------|----------------|    intro
d-------------|------------|----------------|
a--3----------|-3--------- |-3--------------|
e------3---1--|-----3---3-|-----3--2-/-4----|

g-------------------------------|	chorus
d-------------------------------|
a--3----------------------------|
e-----3--1-/-4------------------|

g---------------------------------|    verse
d---------------------------------|
a--3------------------------------|
e-----3--1~-----------------------|
Composição de Dido Armstrong / Rollo Armstrong
677 exibições

0 comentários

Ver todos os comentários

Conseguiu tocar?

0 Tocaram 0 Ainda não

Grave um vídeo tocando Hunter e nos envie!

00:00 / 00:00
outros vídeos desta música
repetir qualidade Automático
Outros vídeos desta música
00:00 / 00:00
Automático

Cifra Club Pro

Aproveite o Cifra Club com benefícios exclusivos e sem anúncios
Cifra Club Pro
Aproveite o Cifra Club com benefícios exclusivos e sem anúncios
OK