Cifra Club

Desbloqueado

Diego e Victor Hugo

Cifra: Principal (violão e guitarra)
Selo Cifra Club: esta cifra foi revisada para atender aos critérios oficiais da nossa Equipe de Qualidade.
tom: G
[Intro] C  Am7  G

[Tab - Violão 1]

Parte 1 de 4
E|-5/7-7p5-5/3-3/2--------------------------|
B|------------------5-3-3/5-----------------|
G|------------------------------------------|
D|------------------------------------------|
A|------------------------------------------|
E|------------------------------------------|

Parte 2 de 4
E|-5/7-7p5-5/3-3/2--------------------------|
B|------------------5-3-3/5-----------------|
G|------------------------------------------|
D|------------------------------------------|
A|------------------------------------------|
E|------------------------------------------|

Parte 3 de 4
E|-7-----7------7-8p7-----------------------|
B|---8------8---------8---------------------|
G|-----7------7-----------------------------|
D|------------------------------------------|
A|------------------------------------------|
E|------------------------------------------|

Parte 4 de 4
E|-7-----7------7-8p7-----------------------|
B|---8--------8-------8---------------------|
G|-----7----7-------------------------------|
D|------------------------------------------|
A|------------------------------------------|
E|------------------------------------------|

[Tab - Violão 2]

Parte 1 de 4
E|------------------------------------------|
B|-7/8-8\7-7\5-5\3--------------------------|
G|-----------------5-4-4/5------------------|
D|------------------------------------------|
A|------------------------------------------|
E|------------------------------------------|

Parte 2 de 4
E|------------------------------------------|
B|-7/8-8\7-7\5-5\3--------------------------|
G|-----------------5-4-4/5------------------|
D|------------------------------------------|
A|------------------------------------------|
E|------------------------------------------|

Parte 3 de 4
E|-3-----3------3-5p3-----------------------|
B|---3------3---------3---------------------|
G|-----0------0-----------------------------|
D|------------------------------------------|
A|------------------------------------------|
E|------------------------------------------|

Parte 4 de 4
E|-3-----3------3-5p3-----------------------|
B|---3--------3-------3---------------------|
G|-----0----0-------------------------------|
D|------------------------------------------|
A|------------------------------------------|
E|------------------------------------------|

[Primeira Parte] 

C
É, não é que seu espelho
          G
Anda diferente?
    C
Tá refletindo um sorriso novo
           G
E mais atraente
   C
Notei que seu cabelo tem mais brilho
           G
E tá cheia   de vida
 C
Seu olhar confirma que se sente
           G
Muito mais   bonita

( C9  G )

[Pré-Refrão] 

C9
   A minha mão te procurou

Não te sentiu
G
  Disparei o meu sorriso

Que não te atingiu
C9
   Resumiu meu beijo
                 Am7
Em dois, três segundos e saiu
           C9
E esqueceu    desbloqueado

Em cima da mesa
 G
Celular vibrou “vrum”, a tela acesa
  Am7                        C9
E um contato estranho te perguntando

[Refrão] 

                 C9
Cê já contou pra ele da gente?
             D
Não esconde nada, não mente
                Em7
Eu não dormi à noite
                   A
Te esperando impaciente

                 C9
Cê já contou pra ele da gente?
             D
Não esconde nada, não mente
            Em7
E esse digitando aí tá demorando
            A
Tá me consumindo, oh

C                                 G
Oi, aqui quem fala é o que tá sobrando

Ela ainda não falou comigo
     Am7             G
Mas calma, ela já tá indo

[Solo] Am7  G

[Tab - Violão 1]

Parte 1 de 2
E|-----------------7-8-7h8p7---7-8p7--------|
B|-5-5-5-7-7/8-8---------------------8------|
G|------------------------------------------|
D|------------------------------------------|
A|------------------------------------------|
E|------------------------------------------|

Parte 2 de 2
E|-7-----7------7-8p7-----------------------|
B|---8------8---------8---------------------|
G|-----7------7-----------------------------|
D|------------------------------------------|
A|------------------------------------------|
E|------------------------------------------|

[Tab - Violão 2]

Parte 1 de 2
E|------------------------------------------|
B|----------------8-10-8h10p8---8-10p8------|
G|-5-5-5-7-7/9-9-----------------------7----|
D|------------------------------------------|
A|------------------------------------------|
E|------------------------------------------|

Parte 2 de 2
E|-3-----3------3-5p3-----------------------|
B|---3------3---------3---------------------|
G|-----0------0-----------------------------|
D|------------------------------------------|
A|------------------------------------------|
E|------------------------------------------|

[Pré-Refrão] 

C9
   A minha mão te procurou

Não te sentiu
G
  Disparei o meu sorriso
                C9
Que não te atingiu

Resumiu meu beijo
                 Am7
Em dois, três segundos e saiu
           C9
E esqueceu    desbloqueado

Em cima da mesa
 G
Celular vibrou “vrum”, a tela acesa
  Am7                        C9
E um contato estranho te perguntando

[Refrão Final] 

                 C9
Cê já contou pra ele da gente?
             D
Não esconde nada, não mente
                Em7
Eu não dormi à noite
                      A
Te esperando impaciente

                 C9
Cê já contou pra ele da gente?
             D
Não esconde nada, não mente
            Em7
E esse digitando aí tá demorando
            A
Tá me consumindo, oh

C                                 G
Oi, aqui quem fala é o que tá sobrando

Ela ainda não falou comigo
     Am7             G
Mas calma, ela já tá indo
Outros vídeos desta música
545.433 exibições
    • ½ Tom
    • A
    • Bb
    • B
    • C
    • Db
    • D
    • Eb
    • E
    • F
    • F#
    • G
    • Ab
  • Adicionar à lista

Afinação da cifra

Afinador online

    0 comentários

    Ver todos os comentários

    Entre para o Cifra Club PRO

    Tenha acesso a benefícios exclusivos no App e no Site

    • Chega de anúncios

    • Mais recursos no app do Afinador

    • Atendimento Prioritário

    • Aumente seu limite de lista

    • Ajude a produzir mais conteúdo

    Cifra Club Pro

    Aproveite o Cifra Club com benefícios exclusivos e sem anúncios
    Cifra Club Pro
    Aproveite o Cifra Club com benefícios exclusivos e sem anúncios
    OK