Cifra Club

90 Dias (part. Péricles)

Dilsinho

Cifra: Principal (violão e guitarra)
Selo Cifra Club: esta cifra foi revisada para atender aos critérios oficiais da nossa Equipe de Qualidade.
tom: C#m
[Intro] A7M/C#  C#m7(9)  C#2(13)
        A2  B2  C#m

[Tab - Intro]

Parte 1 de 3  ​
  A7M/C#
E|------------------------------------------|
B|-------5------------5---------------------|
G|-----2---2--------2-----------------------|
D|---6-------6----6-------------------------|
A|-4------------4---------------------------|
E|------------------------------------------|

Parte 2 de 3

C#m7(9)       C#2(13)
E|------------------------------------------|
B|-------4-------------4--------------------|
G|-----4----4--------3----------------------|
D|---2--------6----6------------------------|
A|-4-------------4--------------------------|
E|------------------------------------------|

Parte 3 de 3
   F#m7   E9/G#  A#m7(5-)
E|------------------4-----------------------|
B|------------------5-----------------------|
G|-2-1-2--4-2-4--6--------------------------|
D|-2------4------6--------------------------|
A|------------------------------------------|
E|-2------4------6--------------------------|

[Primeira Parte] 

C#m7(9)
Ontem eu beijei pela primeira vez
A7M                         A2(6)  
Outros lábios que não eram mais os seus
 C#m7(9)                   B9
Não me acostumei ainda em ser seu ex
      A9
Mas aconteceu

C#m7(9)
Eu sumi, fingi que te esqueci de vez
 A7M                        A2(6) 
Fiz um perfil fake, pra seguir o seu
 C#m7(9)                B2 
Hoje, tá entrando o terceiro mês
          A7M
E eu não sou mais eu

[Pré-Refrão] 

               A2           B/D#
Mas não te liguei pra lamentar
             C#m7      B2
Nem dizer como sobrevivi
           A2          B2
Eu queria mesmo te contar
                 F#/A#      A2     B/D#  
Do beijo que eu dei e o que eu senti

[Refrão] 

               A2       B2
Um gosto de batom nada mais
                C#m7 
Senti que ainda amo você
               A2               B/D#
E agora tanto fez, agora tanto faz
                 C#m7       C#7(4/9)  E/B  B
Falhei em tudo pra te esquecer

         A2       B2
Vivi 90 dias sem paz
               C#m7       F#/A#
Eu tô a ponto de enlouquecer
                 A2                  B2
Liguei pra te dizer, já não aguento mais
                  C#m7      C#7(4/9) 
Eu não vou ser feliz sem você

[Primeira Parte] 

C#m7(9)
Ontem eu beijei pela primeira vez
A7M                         A2(6) 
Outros lábios que não eram mais os seus
 C#m7(9)                   B9
Não me acostumei ainda em ser seu ex
      A9
Mas aconteceu

C#m7(9)
Eu sumi, fingi que te esqueci de vez
 A7M                        A2(6)
Fiz um perfil fake, pra seguir o seu
 C#m7(9)                B2 
Hoje, tá entrando o terceiro mês
          A7M
E eu não sou mais eu

[Pré-Refrão] 

               A2           B/D#
Mas não te liguei pra lamentar
             C#m7      B2
Nem dizer como sobrevivi
           A2          B2
Eu queria mesmo te contar
                 F#/A#      A2     B/D#  
Do beijo que eu dei e o que eu senti

[Refrão] 

               A2       B2
Um gosto de batom nada mais
                C#m7 
Senti que ainda amo você
               A2               B/D#
E agora tanto fez, agora tanto faz
                 C#m7       C#7(4/9)  E/B  B
Falhei em tudo pra te esquecer

         A2       B2
Vivi 90 dias sem paz
               C#m7       F#/A#
Eu tô a ponto de enlouquecer
                 A2                  B2
Liguei pra te dizer, já não aguento mais
                  C#m7      F#/A# 
Eu não vou ser feliz sem você

               A2       B2
Um gosto de batom nada mais
                C#m7 
Senti que ainda amo você
               A2               B/D#
E agora tanto fez, agora tanto faz
                 C#m7       C#7(4/9)  E/B  B
Falhei em tudo pra te esquecer

         A2       F#/A#
Vivi 90 dias sem paz
    F#m/A      C#m/G#     F#/A#
Eu tô a ponto de enlouquecer
                 A2                  B2
Liguei pra te dizer, já não aguento mais
                  C#m7
Eu não vou ser feliz sem você

[Final] A7M/C#  C#2(13)

[Tab - Final]

Parte 1 de 2  ​
  A7M/C#
E|------------------------------------------|
B|-------5------------5---------------------|
G|-----2---2--------2-----------------------|
D|---6-------6----6-------------------------|
A|-4------------4---------------------------|
E|------------------------------------------|

Parte 2 de 2

C#2(13)
E|------------------------------------------|
B|-------4--4-------------------------------|
G|-----3----3-------------------------------|
D|---6------6-------------------------------|
A|-4--------4-------------------------------|
E|------------------------------------------|
00:00 / 00:00
Outros vídeos desta música
Repetir
Outros vídeos desta música
2.874 exibições
    • ½ Tom
    • Am
    • Bbm
    • Bm
    • Cm
    • C#m
    • Dm
    • Ebm
    • Em
    • Fm
    • F#m
    • Gm
    • G#m
  • Adicionar à lista

Afinação da cifra

Afinador online

    0 comentários

    Ver todos os comentários

    Entre para o Cifra Club PRO

    Tenha acesso a benefícios exclusivos no App e no Site

    • Chega de anúncios

    • Mais recursos no app do Afinador

    • Atendimento Prioritário

    • Aumente seu limite de lista

    • Ajude a produzir mais conteúdo

    00:00 / 00:00

    Cifra Club Pro

    Aproveite o Cifra Club com benefícios exclusivos e sem anúncios
    Cifra Club Pro
    Aproveite o Cifra Club com benefícios exclusivos e sem anúncios
    OK