Cifra Club

Black Friday Cifra Club

Serpentine Offering

Dimmu Borgir

Cifra: Principal (violão e guitarra)
tom: G
Tuning: Down a step: DGCFAD

Intro:(every single note isnt there, but you get the point)
|----------------------------------------------------|
|----------------------------------------------------|
|----------------------------------------------------|
|----------------------------------------------------|
|--------------------------222222222222--------------|
|--333333333333333333333333------------333333333333--|      

|----------------------------------------------------|
|----------------------------------------------------|
|----------------------------------------------------|
|----------------------------------------------------|
|--------------------------666666666666--------------|
|--333333333333333333333333------------333333333333--|

Verse 1:
|--------------------------------------------------------------------|
|--------------------------------------------------------------------|
|--------------------------------------------------------------------|
|--------------------4------------------------------------8----------|
|--5--------5--------2--------5------3--5--------5--------6--------5-|
|--3--------3-----------------3------1--3--------3--------6--------3-|

|---------------------------------------------|
|---------------------------------------------|
|---------------------------------------------|
|------------------------------------------3--|
|---------------------3--------------------1--|
|--0000-0000-0000000001--0000 0000-00000000---|

|------------------------------------------------|(X2)
|------------------------------------------------|
|------------------------------------------------|
|------------------------------------------------|
|---------------------3---------------555---555--|
|--0000-0000-0000000001--0000 0000-111---111-----|

|------------------|
|------------------|
|------------------|
|------------------|
|--3--6\3-6\3-6-2--|
|--1--4\1-4\1-4-0--|

|------------------0--|(X12)
|------------------0--|
|---------------------|
|---------------------|
|--3--6\3-6\3-6-2-----|
|--1--4\1-4\1-4-0-----|

|---------------------------|(X2)
|---------------------------|
|-----7-----------7---------|
|-----7-----------7---------|
|--5--5----3-4-5--5----5-4--|
|--5--5----3-4-5--5----3-2--|

|----------------------------------------------------|(X1)
|----------------------------------------------------|
|----------------------------------------------------|
|----------------------------------------------------|
|--------------------------222222222222--------------|
|--333333333333333333333333------------333333333333--|

Verse 2:
|--------------------------------------------------------------------|
|--------------------------------------------------------------------|
|--------------------------------------------------------------------|
|--------------------8------------------------------------4----------|
|--5--------5--------6--------5------3--5--------5--------2--------5-|
|--3--------3--------6--------3------1--3--------3-----------------3-|

Singing Part: (rhythm root notes only)
|--------------------------------------------------------------------|
|--------------------------------------------------------------------|
|--------------------------------------------------------------------|
|--7--------2--------7--------2--------7--------2--------7--------2--|
|--7--------2--------7--------2--------7--------2--------7--------2--|
|--5--------0--------5--------0--------5--------0--------5--------0--|

|--------------------------------------------------------------------|
|--------------------------------------------------------------------|
|--------------------------------------------------------------------|
|--3--------7--------5--------5--------3--------7--------6--------7--|
|--3--------7--------3--------5--------3--------7--------6--------5--|
|--1--------5--------3--------3--------1--------5--------4--------5--|

|-------------------------------------------|
|-------------------------------------------|
|-------------------------------------------|
|--2----------------------------------------|
|--2----------------------------------------|
|--0-let ring-------------------------------|

|-------------------------------------------|
|-------------------------------------------|
|-------------------------------------------|
|-------------------------------------------|
|----------------------------------------3--|
|--000-00000000-00000000-000000111111111-1--|

|-------------------------------------------|(X2)
|-------------------------------------------|
|-------------------------------------------|
|-------------------------------------------|
|------------------------------111111111-3--|
|--000-00000000-00000000-000000----------1--|

|------------------|
|------------------|
|------------------|
|------------------|
|--3--6\3-6\3-6-2--|
|--1--4\1-4\1-4-0--|

|------------------0--|(X8)
|------------------0--|
|---------------------|
|---------------------|
|--3--6\3-6\3-6-2-----|
|--1--4\1-4\1-4-0-----|

|---------------------------------------------|(X3)
|---------------------------------------------|
|---------------------------------------------|
|---------------------------------------------|
|---------------------------------------------|
|--1111-4p1-1111-4p1-1111-3p0-000-000-000000--|

|-----------------------------------|
|-----------------------------------|
|-----------------------------------|
|-----------------------------------|
|---------------------------2--2-2--|
|--1111-4p1-1111-4p1-1111-3-0--0-0--|

-==versão 2==-

d|---------------------------------------------------------------------------|
C|---------------------------------------------------------------------------|
F|---------------------------------------------------------------------------|
E|---------------------------------------------------------------------------|
G|------------------22222222222222222222--------------------------22222222222|
D|-33333333333333333--------------------33333333333333333333333333-----------|
   ..........................................................................

d|---------------------------------------------------------------------------|
C|---------------------------------------------------------------------------|
F|---------------------------------------------------------------------------|
E|---------------------------------------------------------------------------|
G|22222222222------------------22101010101010101010101010--------------------|
D|-----------333333333333333333----------------------------------------------|
  .......................................................

d|---------------------------------------------------------------------------|
C|---------------------------------------------------------------------------|
F|-----------------------------------4---------------------------------------|
E|-5-------------------------5-------4---------------------------5-----------|
G|-5-------------------------5-------2---------------------------5-----------|
D|-3-------------------------3-----------------------------------3-----------|

My Descent is the story of every man;I am hatred, darkness and despair

d|---------------------------------------------------------------------------|
C|---------------------------------------------------------------------------|
F|-----------------------------------4---------------------------------------|
E|-5-------------------------5-------4---------------------------5-----------|
G|-5-------------------------5-------2---------------------------5-----------|
D|-3-------------------------3-----------------------------------3-----------|

My Descent is the story of every man;I am hatred, darkness and despair

e|---------------------------------------------------------------------------|
B|---------------------------------------------------------------------------|
G|---------------------------------------------------------------------------|
D|-------------------3--------------------3--------------------3-------------|
G|-------------------3--------------------3--------------------3-------------|
E|0000-0000-00000000-1-0000-0000-00000000-1-0000-0000-00000000-1-0000-0000---|
  .... .... ........   .... .... ........   .... .... ........   .... ....
  Ooh!

e|---------------------------------------------------------------------------|
B|---------------------------------------------------------------------------|
G|---------------------------------------------------------------------------|
D|---------------------------------------------------------------------------|
A|-------------*-*-*-*-*-*-*-*-*-*-------------------------------------------|
E|00000000--555-999-888-555-999-888------------------------------------------|
  ........  ... ... ... ... ... ...

*Not triplets, expanded for clarity.

         Repeat that twice.

e|---------------------------------------------------------------------------|
B|---------------------------------------------------------------------------|
G|---------------------------------------------------------------------------|
D|--------------2---------------------2--------------------------------------|
A|-3/6\3/6\3/6--2--------3/6\3/6\3/6--2--------------------------------------|
E|-1/4\1/4\1/4--0--------1/4\1/4\1/4--0--------------------------------------|

  Repeat that until told otherwise.

Enters guitar 2, octave above.
e|---------------------------------------------------------------------------|
B|---------------------------------------------------------------------------|
G|-------------4-----0-1-----------------------------------------------------|
D|-3/6\3/6\3/6-2-2-3---------------------------------------------------------|
A|---------------------------------------------------------------------------|
E|---------------------------------------------------------------------------|

Stop once Shagrath starts singing again.

This is the part that makes me wonder if Dimmu Borgir changed tunings between cds. 

e|---------------------------------------------------------------------------|
B|---------------------------------------------------------------------------|
G|-7--------7----------------------------------------------------------------|
D|-7------5-7-10-9-7---------------------------------------------------------|
A|-5----7-3-5-8--7-5---------------------------------------------------------|
E|------5--------------------------------------------------------------------|
heavy pm. . . .  . . 

  Play that twice.

  After that, Play those top couple bars as you hear them being played.

Clear singing part:

e|---------------------------------------------------------------------------|
B|---------------------------------------------------------------------------|
G|---------------------------------------------------------------------------|
D|-7-----------------2-------------------------------------------------------|
A|-7-----------------2-------------------------------------------------------|
E|-5-----------------0-------------------------------------------------------|    

Play that until you hear chord changes, which are:
e|---------------------------------------------------------------------------|
B|---------------------------------------------------------------------------|
G|---------------------------------------------------------------------------|
D|-3---------7--------3----------------------------------------2-------------|
A|-3---------7--------3----------------------------------------2-------------|
E|-1---------5--------1----------------------------------------0-------------|
 these aren't in proper order, but it finishes on the D5 chord ^


Then it's this little doohickey then that slide riff some more.

e|---------------------------------------------------------------------------|
B|---------------------------------------------------------------------------|
G|-----9-9-10--------------------------------------------------------------------|
D|----9-9----------------------------------------------------------------------|
A|--7-------------------------------------------------------------------------|
E|---------------------------------------------------------------------------|

Something like that.
Now end the song with
e|---------------------------------------------------------------------------|
B|---------------------------------------------------------------------------|
G|---------------------------------------------------------------------------|
D|---------------------------------------------------------------------------|
A|---------------------------------------------------------------------------|
E|11111-1h4p1-11111-1h4h1-00000-0h3p0----------------------------------------|
  .....       .....       .....
Hit the string hard on that first 1. Repeat until you feel good about yourself, then the
last to notes are palm mute D5.

| /  slide up
| \  slide down
| h  hammer-on
| p  pull-off
| ~  vibrato
| +  harmonic
| x  Mute note
00:00 / 00:00
Outros vídeos desta música
Repetir
Outros vídeos desta música
Composição de Erkekjetter Silenoz
Colaboração e revisão:
  • Taino Vieira
3.037 exibições
    • ½ Tom
    • A
    • Bb
    • B
    • C
    • Db
    • D
    • Eb
    • E
    • F
    • F#
    • G
    • Ab
  • Adicionar à lista

    0 comentários

    Ver todos os comentários

    Conseguiu tocar?

    2 Tocaram 0 Ainda não

    Grave um vídeo tocando Serpentine Offering e nos envie!

    Entre para oCifra Club PRO

    Tenha acesso a benefícios exclusivos no App e no Site

    • Chega de anúncios

    • Prioridade de compra em lançamentos

    • Mais recursos no app do Afinador

    • Atendimento Prioritário

    • Descontos nos produtos Cifra Club

    • Ajude a produzir mais conteúdo

    00:00 / 00:00

    Cifra Club Pro

    Aproveite o Cifra Club com benefícios exclusivos e sem anúncios
    Cifra Club Pro
    Aproveite o Cifra Club com benefícios exclusivos e sem anúncios
    OK