Cifra Club

Sympozium

Dimmu Borgir

Cifra: Principal (violão e guitarra)
Selo Cifra Club: esta cifra foi revisada para atender aos critérios oficiais da nossa Equipe de Qualidade.
tom: Em
Riff A.1
E|-------------------------------------|
B|-------------------------------------|
G|-2-----------------------------------| Gtr I
D|-2----h-p-------p---------h-p--------|
A|-0---2-3-2-----3-2-------3-4-3-2-----|
E|-----------4-------4-1-----------4-0-|
|                                     |
E|-------------------------------------|
B|-------------------------------------|
G|-------------------------------------| Gtr II
D|------h-p-------p---------h-p--------|
A|-0---2-3-2-----3-2-------3-4-3-2-----|
E|-----------4-------4-1-----------4-0-|

Repeat Riff A.1 (1 time)


Riff A.2
E|-------------------------------------------------------------|
B|-------------------------------------------------------------|
G|-------------------------------------------------------------| Gtr I
D|--------------h-p---------------p-----------------h-p--2-----|
A|-000-000-000-2-3-2-------------3-2---------------3-4-3-2-----|
E|-------------------444-444-444-----4-111-111-111---------4-0-|
| ... ... ...       ... ... ...       ... ... ...             |
E|-------------------------------------------------------------|
B|-------------------------------------------------------------|
G|-------------------------------------------------------------| Gtr  II
D|--------------h-p---------------p-----------------h-p--2-----|
A|-000-000-000-2-3-2-------------3-2---------------3-4-3-2-----|
E|-------------------444-444-444-----4-111-111-111---------4-0-|
  ... ... ...       ... ... ...       ... ... ...

E|-------------------------------------------------------------|
B|-------------------------------------------------------------|
G|-------------------------------------------------------------| Gtr I
D|--------------h-p---------------p-----------------h-p--2-----|
A|-000-000-000-2-3-2-------------3-2---------------3-4-3-2-----|
E|-------------------444-444-444-----4-111-111-111---------4-0-|
| ... ... ...       ... ... ...       ... ... ...             |
E|-------------------------------------------------------------|
B|-------------------------------------------------------------|
G|-------------------------------------------------------------| Gtr II
D|--------------h-p---------------p-----------------h-p--1-----|
A|-000-000-000-2-3-2-------------3-2---------------3-4-3-2-----|
E|-------------------444-444-444-----4-111-111-111---------4-0-|
  ... ... ...       ... ... ...       ... ... ...

Repeat Riff A.1 (2 times)

Riff B.1
E|-----------------|
B|-----------------|
G|-----------------| Gtrs I
D|-5--5-5-5--5-5-5-| & II
A|-3--3-3-3--3-3-3-|
E|-----------------|
  .  . . .  . . .

Riff B.2
E|------------------------|
B|------------------------|
G|-----------------h-p----| Gtr I
D|-------------5--3-5-3---|
A|-3--------6-----------5-|
E|-1--------4-------------|
|                        |
E|------------------------|
B|------------------------|
G|------------------------| Gtr II
D|-----------------h-p----|
A|-3-----------6--5-6-5---|
E|-1--------4-----------6-|

Riff B.3
E|---------------------------------|
B|---------------------------------|
G|--------------------------h-p----| Gtr I
D|-5--------------------5--3-5-3---|
A|-3--------3--------6-----------5-|
E|----------1--------4-------------|
|                                 |
E|---------------------------------|
B|---------------------------------|
G|---------------------------------| Gtr II
D|-5------------------------h-p----|
A|-3--------3-----------6--5-6-5---|
E|----------1--------4-----------6-|

Riff B.4
E|-----------------------------------------------------------------|
B|-----------------------------------------------------------------|
G|-----------------------------------------------------------------| Gtrs I
D|----------------------------5"-3"-5"-6"--------h-p---------------| & II
A|-3"---6"-5"----3"--6"-5"-------------------3"-2-3-2-----6"-5"----|
E|------------6"-----------6"-------------1"-----------4"-------6"-|

Repeat Riff B.4 (1 time)
Repeat Riff B.3 (2 times)
Repeat Riff B.4 (2 times)

Riff C.1 *only Gtr I
E|-----------------------|
B|-----------------------|
G|-5-5----------3--------| Gtr I
D|-3-3-5\4-4-5--1--5-4-5-|
A|-----3\2-2-3-----3-2-3-|
E|-----------------------|

Repeat Riff C.1 (3 time)*Gtrs I and II

Riff C.2
E|-------------------------------------|
B|-------------------------------------|
G|-------------------------------------| Gtr I
D|-------------------------------------|
A|-----6---5------6----------------6\5-|
E|-4-4---4---44-4---4444-6444-7444-4\3-|
| . .   .   .. .   .... .... ....     |
E|-------------------------------------|
B|-------------------------------------|
G|-------------------------------------| Gtr II
D|-------------------------------------|
A|-----6---5------6--------------------|
E|-4-4---4---44-4---4444-6444-7444-4\3-|
  . .   .   .. .   .... .... ....

Repeat Riff C.2 (1 time)
Repeat Riff C.1 (2 times)
Repeat Riff C.2 (2 times)

Riff C.3
E|-----------------------------------|
B|-----------------------------------|
G|-----------------------------------| Gtrs I
D|---------------------1------h-p-h--| & II
A|------3----2------3-----3--2-3-2-3-|
E|-1111---11---11-1------------------|
  ....   ..   .. .

Repeat Riff C.3 (1 time)
Repeat Riff C.2 (2 times)

Riff C.4
E|--------------------------------|
B|--------------------------------|
G|--------------------------------| Gtr I
D|------------------1------h-p-h--| & II
A|-----3---2-----3-----3--2-3-2-3-|
E|-1-1---1---1-1------------------|

Repeat Riff C.4 (1 time)

Fill 1 *let ring
E|------|
B|------|
G|------| Gtrs I
D|-6----| & II
A|-4----|
E|------|

D.1
E|---------------------|
B|---------------------|
G|---------------------| Gtrs I
D|-6-------------------| & II
A|-4-----6-5-3----3-33-|
E|-----4-4-3-1--1-1-11-|
      .        .

Repeat Riff D.1 (3 times)

Riff D.2
E|-----------------------------------------|
B|-----------------------------------------|
G|-----------------------------------------| Gtrs I
D|-6---------------------------------------| & II
A|-4-4-4-4-4-6---------3---------3---------|
E|-----------4-4-4-3-3-1-1-1-1-1-1-1-1-1-1-|
    . . . .   . . . .   . . . .   . . . .

Riff D.3
E|------------------------------------------------|
B|------------------------------------------------|
G|------------------------------------------------| Gtrs I
D|-6----------------------------------------------| & II
A|-4-4-4-44-4-6----------3------------------------|
E|------------4-4-4-33-3-1-1-1-1-1--1-1-11-1-11-1-|
    . . .. .   . . .. .   . . . .  . . .. . .. .

Repeat Riff D.2 (1 time)

Riff D.3 subst.
E|-------------------------------------|
B|-------------------------------------|
G|-------------------------------------| Gtrs I
D|-6-----------------------------------| & II
A|-4-4-4-44-4-6----------3----------3--|
E|------------4-4-4-33-3-1-1-1-1-1--1--|
    . . .. .   . . .. .   . . . .

Solo                                              h p
E|----------------------------------------------4-3-4-3-------|
B|------5-4--h-p--------------------5-4--h-p------------6-----|
G|-6--8-----6-8-6-5------------6--8-----6-8-6-5-----------5-5-| Gtr
D|------------------6-5---------------------------------------| I
A|----------------------8-------------------------------------|
E|------------------------8-8---------------------------------|
|                                                            |
E|------------------------------------------------------------|
B|------------------------------------------------------------|
G|------------------------------------------------------------| Gtr
D|-6---------------------------6------------------------------| II
A|-4-------6---5--3-------3-33-4-------6---5--3----------3-33-|
E|------4--4---3--1-----1-1-11------4--4---3--1--------1-1-11-|
       .               .           .                   .
                                                        *
E|-------------------------------------------------h-p--8-----|
B|------5-4--h-p--------------------5-4--h-p----9-8-9-8-----5-|
G|-6--8-----6-8-6-5------------6--8-----6-8-6-5---------------| Gtr
D|------------------6-5---------------------------------------| I
A|----------------------8-------------------------------------|
E|------------------------8-8---------------------------------|
|                                 *let ring                  |
E|------------------------------------------------------------|
B|------------------------------------------------------------|
G|------------------------------------------------------------| Gtr
D|-6---------------------------6---------------*--------------| II
A|-4-------6---5--3-------3-33-4-------6---5--3---------------|
E|------4--4---3--1-----1-1-11------4--4---3--1---------------|
       .               .           .

Repeat Riff D.2 (1 time)
Repeat Riff D.3 (1 time)
Repeat Riff D.2 (1 time)
Repeat Riff D.3 (1 time)
Repeat Riff A.1 (2 times)
Repeat Riff A.2 (1 time)
Repeat Riff B.1 (1 time)

Riff B.4 subst.
E|-------------------------|
B|-------------------------|
G|-------------------------| Gtrs I
D|--------h-p--------------| & II
A|----3"-2-3-2----6"-5"----|
E|-1"----------4"-------6"-|

Repeat Riff B.4 (1 time)
Repeat Riff B.3 (2 times)
Repeat Riff B.4 (2 times)

Last chord
EE|---|
BE|---|
GE|---| Gtrs I
|-5-|  & II
|-3-|
E|---|
00:00 / 00:00
Outros vídeos desta música
Repetir
Outros vídeos desta música
11 exibições
    • ½ Tom
    • Am
    • Bbm
    • Bm
    • Cm
    • C#m
    • Dm
    • Ebm
    • Em
    • Fm
    • F#m
    • Gm
    • G#m
  • Adicionar à lista

Afinação da cifra

Afinador online

    0 comentários

    Ver todos os comentários

    Entre para oCifra Club PRO

    Tenha acesso a benefícios exclusivos no App e no Site

    • Chega de anúncios

    • Prioridade de compra em lançamentos

    • Mais recursos no app do Afinador

    • Atendimento Prioritário

    • Descontos nos produtos Cifra Club

    • Ajude a produzir mais conteúdo

    00:00 / 00:00

    Cifra Club Pro

    Aproveite o Cifra Club com benefícios exclusivos e sem anúncios
    Cifra Club Pro
    Aproveite o Cifra Club com benefícios exclusivos e sem anúncios
    OK