Cifra Club

Crumble

Dinosaur Jr

Cifra: Principal (violão e guitarra)
Tom: F
Tabbed by: Chapman Li (aka SonicYouthRules)
Email: *

Tuning: Standard

Shoulda been doing my dissertion when I was tabbing this! Plz rate or
if any comments/amendments etc.



INTRO / VERSES

[Rhythm] [0:00]
e|-------------------------------------------------------------------------|
B|--3-3-3-3-3--1-1-1-1-1---3-3-3-3-3--1-1-1-1-1----------------------------|
G|--3-3-3-3-3--2-2-2-2-2---3-3-3-3-3--2-2-2-2-2----------------------------|
D|--3-3-3-3-3--3-3-3-3-3---3-3-3-3-3--3-3-3-3-3----------------------------|
A|--1-1-1-1-1--3-3-3-3-3---1-1-1-1-1--3-3-3-3-3----------------------------|
E|-------------1-1-1-1-1--------------1-1-1-1-1----------------------------|


Just basically F and Bb chords over and over...


[LEAD]  [0:00]
e|--5-5-X-5-5----5-----8-8--8-10--5----------------------------------------|
B|-----------6--6--6-6-----------------------------------------------------|
G|-------------------------------------------------------------------------|
D|-------------------------------------------------------------------------|
A|-------------------------------------------------------------------------|
E|-------------------------------------------------------------------------|





[PRE-CHORUS] [0:42]
e|-----------------------------------5~-8-8-5~--8-8-5~---------------------|
B|--------------------------------8----------------------------------------|
G|-5-5h7-5---5-5h7-5--5-5~----7/9------------------------------------------|
D|---------7--------7----------s-------------------------------------------|
A|-------------------------------------------------------------------------|
E|-------------------------------------------------------------------------|
 
and repeat - note that the hammer-ons are very quick ones




[BRIDGE] [1:36]
e|--------------------0-0-0-0-0-0-0-0----------------0-0-0-0-0-0-----------|
B|--1-1-1-1-1-1-1-1---3-3-3-3-3-3-3-3---1-1-1-1-1-1--3-3-3-3-3-3-----------|
G|--0-0-0-0-0-0-0-0---2-2-2-2-2-2-2-2---0-0-0-0-0-0--2-2-2-2-2-2-----------|
D|--2-2-2-2-2-2-2-2---0-0-0-0-0-0-0-0---2-2-2-2-2-2--0-0-0-0-0-0-----------|
A|--3-3-3-3-3-3-3-3---------------------3-3-3-3-3-3------------------------|
E|-------------------------------------------------------------------------|

i.e. "held a picture yesterday....etc"







[SOLO] [2:03]

e|---------------------------------------------------------------------------|
B|------------------------------5--------------------------------------------|
G|-----5h7-5~~-------5h7-5~--7b(9)------5h7-5~--etc--------------------------|
D|--5h7-------7---5h7----------------5h7-------------------------------------|
A|---------------------------------------------------------------------------|
E|---------------------------------------------------------------------------|


figured out the 1st part, 2nd part is trickier...can improvise using scale

back to VERSE, then PRE-C etc, BRIDGE...





| /  slide up
| \  slide down
| h  hammer-on
| p  pull-off
| ~  vibrato
| +  harmonic
| x  Mute note
===============================================================================
exibições 842
Acordes para:

    0 comentários

    mostrar mais comentários

    Conseguiu tocar?

    0 tocaram 0 ainda não

    Grave um vídeo tocando Crumble e mande pra gente!

    00:00 / 00:00
    outros vídeos desta música
    repetir qualidade Automático
    Outros vídeos desta música
    00:00 / 00:00
    Automático
    OK