Cifra Club

9Th Circle

Dismember

Cifra: Principal (violão e guitarra)
Selo Cifra Club: esta cifra foi revisada para atender aos critérios oficiais da nossa Equipe de Qualidade.
tom: C#m
Riff 1a (0:00) play twice
E|-----------------------------------------------|
B|-----------------------------------------------|
G|-----------------------------------------------|
D|------5--4--1----5-4---------5--4--5-----------|
A|-2----3--2--1----3-2-5--2----3--2--3----5-6-5--|
E|-0-------------------3--0---------------3-4-3--|

Riff 1b (0:17) play twice
E|------------------------------------------------|
B|------------------------------------------------|
G|------------------------------------------------|
D|-------------1~---5-4---------5--4--5-----------|
A|-2----/3--2-------3-2-5--2----3--2--3----5-6-5--|
E|-0--------------------3--0---------------3-4-3--|

Riff 2 (0:35) play twice (increases in tempo)
E|-----------------------------------|-----------------------------------|
B|-----------------------------------|-----------------------------------|
G|-----------------------------------|-----------------------------------|
D|-----------------------------------|-----------------------------------|
A|-2------2--------2------2-2-----6--|-2------2--------2------2-2--------|
E|-0--0-0-0--3-3~--0--0-0-0-0-4-3----|-0--0-0-0--3-3~--0--0-0-0-0-4-3-4--|
     . .             . .     . .         . .             . .     . .

Fill 1 (0:46) play twice
E|-------|-------------|-------------------------|
B|-------|-fa| de chord--|-------------------------|
G|-------|-o| ut quickly-|-------------------------|
D|-------|-------------|-------------------------|
A|-2-----|-------------|------------------5-5-6--|
E|-0-----|-------------|------------------3-3-4--|

Riff 1a x 1/2 (0:55)

Fill 2 (1:03) play twice
E|------|--------|----------|-------|-----------|
B|------|--------|----------|-------|-----------|
G|------|-bass---|----------|-bass--|-----------|
D|------|--------|----------|-------|-----------|
A|-2----|--------|-5-6-2-2--|-------|-5-6-2-6\--|
E|-0----|--------|-3-4-0-0--|-------|-3-4-0-----|
     x

Riff 2 x 2 (1:09) remains at same tempo
Solo begins at (1:20)

Riff 3 (1:30) play twice
E|---------------------------------|
B|---------------------------------|
G|---------------------------------|
D|----------------------3------5-4-|
A|-2------/7---------1-------2-3-2-|
E|-0---------8-7-\1----------0-----|
                              . .

Riff 4 (1:41) play twice
E|-----------------------------------|--------------------------------------|
B|-----------------------------------|--------------------------------------|
G|-----------------------------------|--------------------------------------|
D|-----------------------------------|--------------------------------------|
A|------------3"----2"---------------|------------3"----2"---3"----3"-------|
E|-1"---3"-4"----4"------4"-3"-1"-3"-|-1"---3"-4"----4"---------1"----4"-3"-|

Riff 5 (1:58) play twice
E|-----------------------------------------------------------|
B|-----------------------------------------------------------|
G|-----------------------------------------------------------|
D|-------9"-10"-----10"-9"-----------------------------------|
A|----7"--------12"--------12"----10"-11"----10"-11"-10"-----|
E|-0"--------------------------8"---------8"-------------11"-|

Riff 4 x 1/2 (2:06)
Riff 5 x 1 (2:14)

Riff 6 (2:23) play twice
E|---------------------------------------------------|
B|---------------------------------------------------|
G|---------------------------------------------------|
D|---------------------------------------------------|
A|----5--8--2------------------7--8--2---------------|
E|-0"-3--6--0--0"-0h8p4"-3"-0"-5--6--0--0"-0h6p5"-8"-|

Riff 7a (2:31)
E|--------------------------------------------|
B|--------------------------------------------|
G|--------------------------------------------|
D|-------5------------------------------------|
A|----5--3--2--5--2--7--8-----5--8--7--7-bhr--|
E|-0"-5-----0--3--0--5--6--0"-5--6--7---------|

Riff 7a (2:35)
E|------------------------------------------|
B|------------------------------------------|
G|------------------------------------------|
D|-------5-----------------------------6----|
A|----5--3--2--5--2--7--8-----5--8--7--4----|
E|-0"-5-----0--3--0--5--6--0"-5--6--7--4----|

Riff 7a x 1 (2:39)
Riff 7a x 1 (2:43)

Riff 8a (2:48) play 4 times  * = strength of pinched harmonic varies.
E|-----------------------|
B|-----------------------|
G|-----------------------|
D|-----------*-----------|
A|-2-----7---6^~~--------|
E|-0---0---0-------0-6-5-|
      .   .       . . .

Riff 9 (2:57) play twice
E|----------------------------------------------|
B|----------------------------------------------|
G|----------------------------------------------|
D|----------------------------------------------|
A|-2--7/8----7/8--8---------2--7/8----7/8---x\--|
E|-0--5/6--0-5/6--6-655-655-0--5/6--0-5/6---x\--|
          .        ... ...

Riff 8a x 3/4 (3:06)

Riff 8b (3:13)
E|-----------------------|
B|-----------------------|
G|-----------------------|
D|-----------------------|
A|-2-----7---6---6--6--6-|
E|-0---0---0-6---6--6--6-|
      .   . x

Riff 9a (3:15)
E|------------------------------------------------------------------|
B|------------------------------------------------------------------|
G|------------------------------------------------------------------|
D|------------------------------------------------------------------|
A|-------------------------3333----222222222222---------------------|
E|-111111111111111133334444----4444------------44443333111133334444-|

Riff 9b (3:20)
Guitar One
E|------------------------------------------------------------------|
B|------------------------------------------------------------------|
G|------------------------------------------------------------------|
D|------------------------------------------------------------------|
A|-------------------------3333----222222222222---------------------|
E|-111111111111111133334444----4444------------44443333111133334444-|

Guitar Two
E|------------------------------------------------------------------|
B|------------------------------------------------------------------|
G|------------------------------------------------------------------|
D|------------------------------------------------------------------|
A|-3---3---3---3----------------------------------------------------|
E|-1---1---1---1----------------------------------------------------|
  .   .   .   .

Riff 9c (3:23)
E|------------------------------------------------------------------|
B|------------------------------------------------------------------|
G|------------------------------------------------------------------|
D|------------------------------------------------------------------|
A|-------------------------3333----222222222222---------------------|
E|-111111111111111133334444----4444------------44443333111133334444-|

Riff 9d (3:27)
E|------------------------------------------------------------------|
B|------------------------------------------------------------------|
G|------------------------------------------------------------------|
D|------------------------------------------------------------------|
A|-------------------------3333----2222222222223333----3333---------|
E|-111111111111111133334444----4444----------------1111----44441111-|

Riff 6 x 1 (3:32)

Riff 10 (3:40) play twice
E|-------------------------------------------------------------------|
B|-------------------------------------------------------------------|
G|-------------------------------------------------------------------|
D|-------------------------------------------------------------------|
A|---------5555----------------------------5555----5555----77778888--|
E|-55556666----6666555533335555666655556666----6666----6666----------|

Riff 6 x 1 (3:48)
Riff 10 x 1 (3:56)
Riff 9c x 1 (4:04)
Riff 9d x 1 (4:08)
Riff 9c x 1 (4:13)
Riff 9d x 1 (4:17)

End (4:21)
                                        [x2]  [x1]
E|------------------------------------------|-----|
B|------------------------------------------|-----|
G|------------------------------------------|-----|
D|------------2--------------3~~------5-----|-----|
A|-2--------------3-2--------------2--3--2--|-2---|
E|-0------------------1--5~--------0-----0--|-0---|
                                     .  .    x
End.
00:00 / 00:00
Outros vídeos desta música
Repetir
Outros vídeos desta música
4 exibições
    • ½ Tom
    • Am
    • Bbm
    • Bm
    • Cm
    • C#m
    • Dm
    • Ebm
    • Em
    • Fm
    • F#m
    • Gm
    • G#m
  • Adicionar à lista

Afinação da cifra

Afinador online

    0 comentários

    Ver todos os comentários

    Entre para o Cifra Club PRO

    Tenha acesso a benefícios exclusivos no App e no Site

    • Chega de anúncios

    • Mais recursos no app do Afinador

    • Atendimento Prioritário

    • Aumente seu limite de lista

    • Ajude a produzir mais conteúdo

    00:00 / 00:00

    Cifra Club Pro

    Aproveite o Cifra Club com benefícios exclusivos e sem anúncios
    Cifra Club Pro
    Aproveite o Cifra Club com benefícios exclusivos e sem anúncios
    OK