Cifra Club

Reborn In Blasphemy

Dismember

Cifra: Principal (violão e guitarra)
Selo Cifra Club: esta cifra foi revisada para atender aos critérios oficiais da nossa Equipe de Qualidade.
tom: Fm
Riff 1a (0:00)
E|------------------------------|---------------------------------|
B|------------------------------|---------------------------------|
G|------------------------------|---------------------------------|
D|------------------------------|---------------------------------|
A|-2---7-10-7--6-------2--5--6--|-2---7-10-7--6-------2--3-3-3-3--|
E|-0---------------6p3----------|-0---------------6p3----1-1-1-1--|
                                                        . . . .
Riff 1b (0:09)
E|------------------------------|--------------------------------|
B|------------------------------|--------------------------------|
G|------------------------------|--------------------------------|
D|------------------------------|--------------------------------|
A|-2---7-10-7--6-------2--5--6--|-2---7-10-7--6-------2--3--6\5--|
E|-0---------------6p3----------|-0---------------6p3----1--4\3--|

Riff 1c (0:17)
E|------------------------------|--------------------------------|
B|------------------------------|--------------------------------|
G|------------------------------|--------------------------------|
D|------------------------------|--------------------------------|
A|-2---7-10-7--6-------2--5--6--|-2---7-10-7--6-------2--3--3-3--|
E|-0---------------6p3----------|-0---------------6p3----1--1-1--|
                                                           . .
Drums (0:26)

Riff 2a (0:28)
E|-----------------------------------------------------|
B|-----------------------------------------------------|
G|-----------------------------------------------------|
D|-----------------------------------------------------|
A|---------------------3-3333-2-22222-22222-3-2-----8--|
E|-0-00000-0000-3-3333--------------------------5-6----|
  . ..... .... . .... . .... . ..... ..... . . . . .

Riff 2b (0:33)
E|------------------------------------------------------|
B|------------------------------------------------------|
G|------------------------------------------------------|
D|-----------------------------------333----------------|
A|--------------5---3---6---------------666555333222----|
E|-0-00000-0000-3---1---4-44444-4444----------------111-|
  . ..... ....           ..... .... ..................

Riff 3a (0:38)
E|---------------------------------------|
B|---------------------------------------|
G|---------------------------------------|
D|---------------------------------5<6>--|
A|-2---------------2-------------4-------|
E|-0----3/7--6---3\0---3/7--6--4---------|
    x               x

Riff 3b (0:44)
E|----------------------------------------|
B|----------------------------------------|
G|----------------------------------------|
D|----------------------------------7-6---|
A|-2---------------2--------------5-----7-|
E|-0----3/7--6---3\0---3/7--6--\1---------|
    x               x

Riff 4a (0:50) play 3 times
E|--------------------------------------|
B|--------------------------------------|
G|--------------------------------------|
D|--------------------------------------|
A|------7"----5"------------------------|
E|-5"------6"----7"-8"-4"---334"--336"--|

Fill 1 (1:10)
E|--------------------|
B|--------------------|
G|--------------------|
D|-----5--4-----5--4--|
A|-2---3--2--3--3--2--|
E|-0---------1--------|

Drums (1:13)

Riff 5 (1:14)
E|----------------------------------|----------------------------|
B|----------------------------------|----------------------10~~--|
G|----------------------------------|----------------------------|
D|---------------6------------2-----|---------------6---4~-------|
A|-8----8--7--8--4---3--2--3-----3--|-8----8--7--8--4------------|
E|-6----------6---------------------|-6----------6---------------|

Riff 6 (1:23) play twice
E|------------------------------------|
B|---------------------0--------------|
G|---------------------------3--------|
D|---------------------------------4--|
A|----------------1"-----1-1---1-1----|
E|-0"----1"-3"-1"---------------------|
                        . .   . .

Fill 2 (1:31)
E|----|------|----|------|----|------|----|
B|----|------|----|------|----|------|----|
G|----|-bass-|----|-bass-|----|-bass-|----|
D|----|------|----|------|----|------|----|
A|-2--|------|-2--|------|-2--|------|-2--|
E|-0--|------|-0--|------|-0--|------|-0--|
  x

Riff 6 x 1 (1:35)

Riff 7a (1:43)
E|------------------------------------------------|
B|------------------------------------------------|
G|------------------------------------------------|
D|-------------2p0---2h3p2------------------------|
A|-----------------2-------2-2-5-2-----1h2---1h2--|
E|-0"-1"-3"-1"-------------0-0-3-0-1"------1------|

Riff 7b (1:47)
E|----------------------------------------------|
B|----------------------------------------------|
G|----------------------------------------------|
D|-------------2p0---2h3p2----------------------|
A|-----------------2-------2-2-5-2-----3h4-3h4--|
E|-0"-1"-3"-1"-------------0-0-3-0-1"-----------|

Riff 6 x 1 (1:52)

Riff 8a (2:00)
E|------------------------------------|-----------------------------|
B|------------------------------------|-----------------------------|
G|------------------------------------|-----------------------------|
D|-------8-7--------------------------|-------8-7-------------------|
A|-2---------7-6"--776"-779"--10109"--|-2---------7-6"--776"--------|
E|-0----------------------------------|-0--------------------8"-7"--|
              .     .    .

Riff 8b (2:08)
E|------------------------------------|----------------|
B|------------------------------------|----------------|
G|------------------------------------|----------------|
D|-------8-7--------------------------|-------8-7------|
A|-2---------7-6"--776"-779"--10109"--|-2---------7-6--|
E|-0----------------------------------|-0-----------6--|
              .     .    .                         x

Riff 9a (2:17)
E|---------------------------|----------------------------|
B|---------------------------|----------------------------|
G|---------------------------|----------------------------|
D|--------------5------------|--------------5-------4ph~--|
A|-8-----8-7-8--3--------7---|-8-----8-7-8--3----3--------|
E|-6---------6-----8-7-8---8-|-6---------6-------1--------|

Riff 6 x 1 (2:25)

Riff 10 (2:33) play twice
E|--------------------------------------|----------------------------|
B|--------------------------------------|----------------------------|
G|--------------------------------------|----------------------------|
D|----------------9"-10"----------------|------------------------5"--|
A|-7"--------------------8"---5"-7"--8\-|-7"-------------6"----------|
E|-------5"-7"-8"-----------------------|-------5"-7"-8"-------------|

Fill 3 (2:51)
E|--------|
B|--------|
G|--------|
D|--------| fade chord out quickly
A|-2------|
E|-0------|

Riff 11a (2:51)
E|---------------------------------------------|
B|---------------------------------------------|
G|---------------------------------------------|
D|-------9---------9-----------8---------8-----| Clean
A|----7---------7-----7-----8---------8-----8--|
E|-0---------0-----------6---------6-----------|

Riff 11b (2:56)
E|------------------------------------------------------|
B|------------------------------------------------------|
G|------------------------------------------------------|
D|-------9---------9------------10---------7---------9--| Clean
A|----7---------7-----7-----10----------7---------9-----|
E|-0---------0-----------8-----------5---------7--------|

Riff 12a (3:01) play twice
E|----------------------------------------------------|
B|----------------------------------------------------|
G|----------------------------------------------------|
D|----------------------------2<3>--------------------|
A|-3--2--------3--2--------3--------------3--2--------|
E|-1--0--------1--0--------1--------------1--0--------|
  .           .           .              .

Riff 12b (3:17) play 8 times
E|-------------------|
B|-------------------|
G|-------------------|
D|-------------------| gtr 1
A|-2---------------3-|
E|-0---------------1-|
                  .

E|-------------------|
B|-------------------|
G|-------------------|
D|---10-9---10-9-7---| gtr 2
A|-7------7--------8-|
E|-------------------|

Riff 12c (3:32)
E|---------------------------------------------------|
B|---------------------------------------------------|
G|---------------------------------------------------|
D|---------------------------------------------------|
A|-3--2--------3--2--------3--2----------2--/3--\2---|
E|-1--0--------1--0--------1--0--------1-------------|
  .           .           .           

Riff 12d (3:39)
E|---------------------------------------------------|
B|---------------------------------------------------|
G|---------------------------------------------------|
D|---------------------------------------------------|
A|-3--2--------3--2--------3--6----------2--/3--\2---|
E|-1--0--------1--0--------1--4--------1-------------|
  .           .

Riff 13 (3:46) play 8 times
E|-------------------|
B|-------------------|
G|-------------------|
D|---10-9---10-9-7---|
A|-7------7--------8-|
E|-------------------|

Riff 14a (4:00) play twice
E|--------------------------------------|
B|--------------------------------------|
G|---------4----------------------------|
D|---------------------3-2---3-2--------|
A|-2-4-5-2---5-1-4-5---------------2-3--|
E|-------------------5-----5-----4------|

Riff 14b (4:08)
E|--------------------------------------|
B|--------------------------------------|
G|---------4----------------------------|
D|---------------------3-2---3-2--------|
A|-2-4-5-2---5-1-4-5---------------2-3--|
E|-------------------5-----5-----4------|
  . . . . . . . . . . . . . . . . . .

Solo begins at (4:12)
Riff 8a x 1 (4:12)
Riff 8b x 1 (4:21)

Riff 15a (4:29) play twice
E|------------------------------------------|
B|------------------------------------------|
G|--------------------------------------4\--|
D|-------------------------------3"--2"-----|
A|-----2"-3"-----2"-3"-----2"-3"------------|
E|-0"--------1"--------4"-------------------|

Riff 15b (4:33) play twice
E|-------------------------------------------|
B|-------------------------------------------|
G|-------------------------------------------|
D|-------------------------------------------|
A|-----2"-3"-----2"-3"-----2"-3"-------------|
E|-0"--------1"--------4"--------3"--4"--1"--|

Riff 15a x 1 (4:37)
Riff 15b x 1 (4:42)
End
00:00 / 00:00
Outros vídeos desta música
Repetir
Outros vídeos desta música
2 exibições
    • ½ Tom
    • Am
    • Bbm
    • Bm
    • Cm
    • C#m
    • Dm
    • Ebm
    • Em
    • Fm
    • F#m
    • Gm
    • G#m
  • Adicionar à lista

Afinação da cifra

Afinador online

    0 comentários

    Ver todos os comentários

    Entre para o Cifra Club PRO

    Tenha acesso a benefícios exclusivos no App e no Site

    • Chega de anúncios

    • Mais recursos no app do Afinador

    • Atendimento Prioritário

    • Aumente seu limite de lista

    • Ajude a produzir mais conteúdo

    00:00 / 00:00

    Cifra Club Pro

    Aproveite o Cifra Club com benefícios exclusivos e sem anúncios
    Cifra Club Pro
    Aproveite o Cifra Club com benefícios exclusivos e sem anúncios
    OK