Cifra Club

Sem Ar

D'Black

Cifra: Principal (violão e guitarra)
exibições 2.799.093
Tom: G
[Intro] G9  G  Em7(9/11)  Em7(9) 
        C9  G/B  Am7  D4  D  D9

   G9                G
E|------------------------------------------|
B|-------3---3---3---3----------------------|
G|-----2-----2---0---0----------------------|
D|---0-----0---0---0---0--------------------|
A|------------------------------------------|
E|-3-----------------3----------------------|

   Em7(9/11)     Em7(9)
E|-----------------5------------------------|
B|-------3---3---3-3------------------------|
G|-----2-----2---0---0----------------------|
D|---4-----4---4----------------------------|
A|------------------------------------------|
E|-0-------------0--------------------------|

   C9            G/B   Am7   D4      D   D9 
E|-------0-------------------------3-2---0--|
B|-----3-----3-1-----3-----1-----3----------|
G|---0-----0-------0-----0-----2-------2----|
D|---------------------------0-------------0|
A|-3-------------2-----0--------------------|
E|------------------------------------------|

[Primeira Parte]

   G9                G
E|------------------------------------------|
B|-------3---3---3---3----------------------|
G|-----2-----2---0---0----------------------|
D|---0-----0---0---0---0--------------------|
A|------------------------------------------|
E|-3-----------------3----------------------|

   Bm7                   C9 
E|-------5---5---5---5---------3---3---3----|
B|-----3-----3---3---3-------3-----3---3----|
G|---0-----0---0---0-------0-----0---0---0--|
D|------------------------------------------|
A|-2-------------2-----2-3-------------3----|
E|------------------------------------------|

          C/D         D   D4
E|-3---3--------------2---3-----------------|
B|-3---3--------5-5---3---3---3-------------|
G|---0--------5---5-----2---2---------------|
D|----------5-----5---0---------------------|
A|--------5---------0-----------------------|
E|------------------------------------------|

G9               G
   Meus pés não tocam mais o chão
Bm7
   Meus olhos não vêem minha direção
C9
  Da minha boca saem coisas sem sentido
C/D                    D         D4
  Você era o meu farol e hoje estou perdido

G9                    G
  O sofrimento vem à noite sem pudor
Bm7
   Somente o sono ameniza minha dor
C9
   Mas e depois? e quando o dia clarear?
C/D                     D             D4
    Quero viver do teu sorriso teu olhar

[Refrão]

   G                     Em7(9/11) 
E|------------------------------------------|
B|-------3---3---3---3---------3---3--------|
G|-----0-----0---0---0-------2-----2--------|
D|---0-----0---0---0-------4-----4---4------|
A|------------------------------------------|
E|-3-------------------2-0------------------|
 
   Em7(9)
E|------------------------------------------|
B|-3---3------------------------------------|
G|-0---0------------------------------------|
D|---4--------------------------------------|
A|-------2----------------------------------|
E|-0----------------------------------------|

   C9                      Am7 D7(4)  
E|---------3---------3-----------------3----|
B|-------3-3-------3---3-----1-------3-3-3--|
G|-----5---5-----5-------5---0-----5-----5--|
D|---5---------5-------------2---5----------|
A|-3---------3-------------0---5------------|
E|------------------------------------------|

    G                                 D9/F#
Eu corro pro mar pra não lembrar você
     Em7(9/11)                   Em7(9)
E o vento me trás o que eu quero esquecer
            C9
Entre os soluços do meu choro eu tento te explicar
           Am7             D7(4)
Nos teus braços é o meu lugar

        G                             D9/F#
Contemplando as estrelas minha solidão
  Em7(9)                                Bm7
Aperta forte o peito é mais que uma emoção
      C9                      G/B
Esqueci do meu orgulho pra você voltar
      Am7                D7(4)   G
Permaneço sem amor, sem luz, sem ar

[Primeira Parte]
 
G9                 G
   Perdi o jogo e tive que te ver partir
Bm7
   E a minha alma sem motivo pra existir
C9
  Já não suporto esse vazio quero me entregar
C/D                    D            D4
   Ter você pra nunca mais nos separar

G9                      G
   Você é o encaixe perfeito do meu coração
Bm7
   O teu sorriso é chama da minha paixão
C9
   Mas é fria a madrugada sem você aqui
C/D                     D     D4
   Só com você no pensamento

[Segunda Parte]

   C7M                   G/B
E|------------------------------------------|
B|-------0---0---0---0---3---3---3---3------|
G|-----0-----0---0---0---0---0---0---0------|
D|---2-----2---2---2---2---0---0---0---0----|
A|-3-------------3-------2-------2----------|
E|------------------------------------------|

   Am7     Am7/G
E|------------------------------------------|
B|-1---1---1---1----------------------------|
G|-0---0---0---0----------------------------|
D|---0---0---0---0--------------------------|
A|-0----------------------------------------|
E|---------3--------------------------------|

 C7M                G/B
Meu ar, meu chão é você
        Am7           Am7/G
Mesmo quando fecho os olhos
 F7M      D    E
Posso te ver!

[Terceira Parte]

   A                   E/G#
E|------------------------------------------|
B|-------2---2---2---2----------------------|
G|-----2-----2---2---2----------------------|
D|---2-----2---2---2------------------------|
A|-0-------------0--------------------------|
E|---------------------4--------------------|

   E/F#          F#m7  A/C# 
E|------------------------------------------|
B|-------0---0---2-----2--------------------|
G|-----1-----1---2-----2--------------------|
D|---2-----2---2---2-----2------------------|
A|---------------------4--------------------|
E|-2-------------2--------------------------|

   D           A/C# Bm7     E   E4
E|-2---3---2--------------------------------|
B|-3---3---3---2----3---3---0---0-----------|
G|---2---2---2-2----2---2---1---2-----------|
D|-0-------0-----2----2---2---2-------------|
A|-------------4----2-----------------------|
E|--------------------------0---------------|

   A                   E/G# F#m7        A/C# 
E|------------------------------------------|
B|-------2---2---2---2------2---2---2---2---|
G|-----2-----2---2---2------2---2---2---2-2-|
D|---2-----2---2---2----------2---2---2-----|
A|-0-------------0----------------------4---|
E|---------------------4----2-------2-------|

   D       A/C#    Bm7     E        A7M(9)
E|-2---2----------------------------4-------|
B|-3---3---2---2---3---3---------0--0-------|
G|---2---2-2---2---2---2-------1----6-------|
D|-0---------2---2---2---2---2------6-------|
A|---------4-------2----------------0-------|
E|-------------------------0--------x-------|

    A                                 E/G#
Eu corro pro mar pra não lembrar você
     E/F#                        F#m7     A/C#
E o vento me traz o que eu quero esquecer
            D                                     A/C#
Entre os soluços do meu choro eu tento te explicar
           Bm7             E  E4
Nos teus braços é o meu lugar
        A                             E/G#
Contemplando as estrelas minha solidão
  F#m7                                  A/C#
Aperta forte o peito é mais que uma emoção
      D                       A/C#
Esqueci do meu orgulho pra você voltar
      Bm7                E      A7M(9)
Permaneço sem amor, sem luz sem ar

0 comentários

mostrar mais comentários

Conseguiu tocar?

61 tocaram 9 ainda não

Grave um vídeo tocando Sem Ar e mande pra gente!

00:00 / 00:00
outros vídeos desta música
repetir qualidade Automático
Outros vídeos desta música
00:00 / 00:00
Automático
Capítulos
  • Início
  • Acordes da introdução
  • Tocando a introdução
  • Ensinando o dedilhado da introdução
  • Acordes da primeira parte
  • Tocando a primeira parte
  • Ensinando o dedilhado da primeira parte
  • Acordes do refrão
  • Tocando o refrão
  • Ensinando o dedilhado do refrão
  • Acordes da segunda parte
  • Tocando a segunda parte
  • Ensinando o dedilhado da segunda parte
  • Acordes da terceira parte
  • Tocando a terceira parte
  • Ensinando o dedilhado da terceira parte
  • Encerramento
OK