Cifra Club

Aprenda

Signal

Do As Infinity

Tab de baixo: Principal
Tabbed By :  Justin RiRaY    Rock on   \m/ (>_ X2
G|-------------------------------------------------|        /
D|----------------------------4-3------------------|    
A|--------------1-2-4-4-4-4-6-----4----------------|      /
E|--2-2-2-2-2-2------------------------------------|

G|-------------------------------------------------|   /
D|--------4h6-----8h9-8----9-8-6-4-----------------|
A|--4-4-4----------------4-------------------------|
E|-------------------------------------------------| /

G|-------------------------------------------------------------------|
D|-------------4-6---------------------------------------------------|
A|--2-2-2-2-2------6~------------------------------------------------|
E|-------------------------------------------------------------------|


     BRIDGE

G|-------------------------------------------------------------------|
D|----------------------------------4-4-3h4-4------------------------|
A|--6-6------4-----------6-6------4--------------     ---------------|
E|------7--7---2-1/2-2-------7--7---------------      ---------------|
                                                  X2
G|----------------------------------------------      ---------------|
D|----------------------------------------------     ----------------|
A|--6-6------4-----------6-6------4----------------------------------|
E|------7--7---2-1/2-2-------7--7---2-1/2-2--------------------------|


     OUTRO

G|-----------------------------------------6--4--11^^----------------|
D|----------3h4-4--6--4-------------4h6-6----------------------------|
A|---------------------------6-6-------------------------------------|
E|--4-4--------------------------------------------------------------|

G|-----------------------------------------6--4----------------------|
D|----------3h4-4--6--4-------------4h6-6----------------------------|
A|---------------------------6-6-------------------------------------|
E|--4-4--------------------------------------------------------------|

G|-----------------------------------------6--4----------------------|
D|----------3h4-4--6--4-------------4h6-6----------------------------|
A|---------------------------6-6-------------------------------------|
E|--4-4--------------------------------------------------------------|

G|-----------------------------------------6--4----------------------|
D|----------3h4-4--6--4-------------4h6-6----------------------------|
A|---------------------------6-6-------------------------------------|
E|--4-4--------------------------------------------------------------|

G|-----------------------------------------6--4----------------------|
D|----------3h4-4--6--4-------------4h6-6----------------------------|
A|---------------------------6-6-------------------------------------|
E|--4-4--------------------------------------------------------------|

G|-----------------------------------------6--4----------------------|
D|----------3h4-4--6--4-------------4h6-6----------------------------|
A|---------------------------6-6-------------------------------------|
E|--4-4--------------------------------------------------------------|
   
     BASS 2 (OUTRO only)

G|-------------------------------------------------------------------|
D|-----------------------------------   -----------------------------|
A|---------------------------------- X2 -----------------------------|
E|--4-4-----2-2------6-6-----7-7----   ------------------------------|

G|-------------------------------------------------------------------|
D|-----------------------------------   -----------------------------|
A|---------------------------------- X4 -----------------------------|
E|--4-4-4~--2-2-2~--6-6-6~--7-7-7~--   ------------------------------|




| /  slide up
| \  slide down
| h  hammer-on
| p  pull-off
| ~  vibrato
| ^  bend
======================================================================
Composição de Do As Infinity
184 exibições

0 comentários

Mostrar mais comentários

Conseguiu tocar?

0 Tocaram 0 Ainda não

Grave um vídeo tocando Signal e mande pra gente!

00:00 / 00:00
outros vídeos desta música
repetir qualidade Automático
Outros vídeos desta música
00:00 / 00:00
Automático

Cifra Club Pro

Aproveite o Cifra Club com benefícios exclusivos e sem anúncios
7 dias grátis
Cifra Club Pro
Aproveite o Cifra Club com benefícios exclusivos e sem anúncios
7 dias grátis
OK