Cifra Club

Crazy For Jesus

DDD Doidin de Deus

Cifra: Principal (violão e guitarra)
tom: E
Intro:
  E            B      A         E  E E D# D
E|--4-4-4-2-0--------5-5-5-4-2-0--0-0-------|
B|------------4-----------------------4--3--|
G|------------------------------------------|
D|------------------------------------------|
A|------------------------------------------|
E|------------------------------------------|
    D          A         B         E
E|--0-0-2-4-5--5-9-9-9-7-7-7-5-5-5-4--------|
B|------------------------------------------|
G|------------------------------------------|
D|------------------------------------------|
A|------------------------------------------|
E|------------------------------------------|

E                       B
Jesus, eu te ai love iú!
A                       E
Jesus eu sou creizi fó iú!
E  D#  D                     A                       B
        Pode me chamar de doido que eu assumo a verdade
                E
Eu quero é novidade
E                       B
Jesus, eu te ai love iú!
A                       E
Jesus eu sou creizi fó iú!
E  D#  D                     A                       B
        Pode me chamar de doido que eu assumo a verdade
                E
Eu quero é novidade

                    B
Ai eme creizi fó Jesus
A                   E
Eu sou doido por Jesus
E  D#  D                  A
      Ai eme creizi fó Jesus
                    B
Eu sou doido por Jesus
                    E
Ai eme creizi fó Jesus

                    B
Ai eme creizi fó Jesus
A                   E
Eu sou doido por Jesus
E  D#  D                  A
      Ai eme creizi fó Jesus
                    B
Eu sou doido por Jesus

(Intro)

E                       B
Jesus, eu te ai love iú!
A                       E
Jesus eu sou creizi fó iú!
E  D#  D                     A                       B
        Pode me chamar de doido que eu assumo a verdade
                E
Eu quero é novidade
E                       B
Jesus, eu te ai love iú!
A                       E
Jesus eu sou creizi fó iú!
E  D#  D                     A                       B
        Pode me chamar de doido que eu assumo a verdade
                E
Eu quero é novidade

 - Parou, parou, parou.
 - Eu estou achando esse brega muito brega,
Que tal se agente tocasse um rock, Vamos lá.

 - Chama o nosso guitarreletero ai...
 - Ho Leu, toca um rock ai.
E|--12---12--12---12--12----------------------|
B|--15b--15--15b--15--15b---15--15--15Hb~~~~~~|
G|--------------------------------------------|
D|--------------------------------------------|
A|--------------------------------------------|
E|--------------------------------------------|

E|--------------------------------------------|
B|--------------------------------------------|
G|--9-x-x-9-x-x-9-x-9-x-x-9-x-x-9-x-9---------|
D|--9-x-x-9-x-x-9-x-9-x-x-9-x-x-9-x-9---------|
A|--7-x-x-7-x-x-7-x-7-x-x-7-x-x-7-x-7---------|
E|--------------------------------------------|

E5                      B5
Jesus, eu te ai love iú!
A5                      E5
Jesus eu sou creizi fó iú!
E5  D#5  D5                  A5                      B5
        Pode me chamar de doido que eu assumo a verdade
                E5
Eu quero é novidade
E5                      B5
Jesus, eu te ai love iú!
A5                      E5
Jesus eu sou creizi fó iú!
E5  D#5  D5                  A5                      B5
        Pode me chamar de doido que eu assumo a verdade
                E5
Eu quero é novidade

                    B5
Ai eme creizi fó Jesus
A5                  E5
Eu sou doido por Jesus
E5  D#5  D5               A5
      Ai eme creizi fó Jesus
                    B5
Eu sou doido por Jesus
                    E5
Ai eme creizi fó Jesus

                    B5
Ai eme creizi fó Jesus
A5                  E5
Eu sou doido por Jesus
E5  D#5  D5               A5
      Ai eme creizi fó Jesus
                    B5
Eu sou doido por Jesus
                    E5
Ai eme creizi fó Jesus

D                    A                       B
Pode me chamar de doido que eu assumo a verdade
                E
Eu quero é novidade
00:00 / 00:00
Outros vídeos desta música
Repetir
Outros vídeos desta música
Composição de Jocélio De Castro
Colaboração e revisão:
  • Anderson Aleixo
3.527 exibições
    • ½ Tom
    • A
    • Bb
    • B
    • C
    • Db
    • D
    • Eb
    • E
    • F
    • F#
    • G
    • Ab
  • Adicionar à lista

    0 comentários

    Ver todos os comentários

    Conseguiu tocar?

    1 Tocaram 1 Ainda não

    Grave um vídeo tocando Crazy For Jesus e nos envie!

    00:00 / 00:00

    Cifra Club Pro

    Aproveite o Cifra Club com benefícios exclusivos e sem anúncios
    Cifra Club Pro
    Aproveite o Cifra Club com benefícios exclusivos e sem anúncios
    OK