Cifra Club

Night Rider

Dokken

Cifra: Principal (violão e guitarra)
Selo Cifra Club: esta cifra foi revisada para atender aos critérios oficiais da nossa Equipe de Qualidade.
tom: A
E|-----------------------------------------|-------------|-------------|
B|-----------------------------------------|-------------|-------------|
G|-----------------15--13-12---------------|-------------|-------------|
D|---------9tr---------------13-12-----9ph-|--5/7--5/7---|---5//\\\\---|
A|-----------------------------------------|--3/5--3/5---|---3//\\\\---|
E|---0-0------0-0------------------0-0-----|-------------|-------------|
                    
                        PM      PM                    PM
E|--------------------|---------------------------------------------------|
B|--------------------|---------------------------------------------------|
G|---15--13-12--------|--------------15--13-12----------------------------|
D|-------------13-12--|-------9----------------13-12-------9ph---5/7--5/7-|
A|--------------------|------------------------------------------3/5--3/5-|
E|--------------------|--0-0-----0-0-------------------0-0----------------|

    PM        PM                   PM     PM    PM
E|---------------------------------------------------------|
B|---------------------------------------------------------|
G|-----------------15--13-12-------------------------------|
D|---------9tr---------------13-12------9ph----5------5/7--|
A|---------------------------------------------3------3/5--|
E|---0-0-------0-0------------------0-0----0-0----0-0------|

  
Verse 
Clean tone:
         nh                                         nh
E|----------------------2~----------------------------------------2~--------|
B|---3~---12~----0~-----3~-----3~------0~------3~----12~----0~----3~----3~--|
G|---2~----------2~-----2~-----2~------2~------2~-----------2~----2~----2~--|
D|---0~----------2~------------0~------2~------0~-----------2~----0~----0~--|
A|--------------------------------------------------------------------------|
E|--------------------------------------------------------------------------|

Chorus:
Distorted:                        
                                x2
                                  PM       PM                   PM          
E|-------------------------------|------------------------------------------|
B|-------------------------------|------------------------------------------|
G|--2~------5~----------2~---5~--|----------------15--13-12-----------------|
D|--2~------5~---2~-----2~---5~--|---------9ph--------------13-12-------9ph-|
A|--0~------3~---2~-----0~---3~--|------------------------------------------|
E|---------------0~--------------|---0-0------0-0-------------------0-0-----|

E|--------------------|
B|--------------------|
G|--------------------|
D|--------5------5/7--|
A|--------3------3/5--|
E|--0-0-------0-0-----|

Verse 
Clean tone:
         nh                                         nh
E|----------------------2~----------------------------------------2~--------|
B|---3~---12~----0~-----3~-----3~------0~------3~----12~----0~----3~----3~--|
G|---2~----------2~-----2~-----2~------2~------2~-----------2~----2~----2~--|
D|---0~----------2~------------0~------2~------0~-----------2~----0~----0~--|
A|--------------------------------------------------------------------------|
E|--------------------------------------------------------------------------|


Chorus:
Distorted:                        
                                x2
                                  PM       PM                   PM          
E|-------------------------------|------------------------------------------|
B|-------------------------------|------------------------------------------|
G|--2~------5~----------2~---5~--|----------------15--13-12-----------------|
D|--2~------5~---2~-----2~---5~--|---------9ph--------------13-12-------9ph-|
A|--0~------3~---2~-----0~---3~--|------------------------------------------|
E|---------------0~--------------|---0-0------0-0-------------------0-0-----|

1st ending            Second ending
E|-------------------|-------------------|
B|-------------------|-------------------|
G|-------------------|-------------------| (solo)(verse)(chorus)
D|----5/7---5/7------|------5------5/7---|
A|----3/5---3/5------|------3------3/5---|
E|-------------------|--0-0----0-0-------|
 
Outros vídeos desta música
    2 exibições
      • ½ Tom
      • A
      • Bb
      • B
      • C
      • Db
      • D
      • Eb
      • E
      • F
      • F#
      • G
      • Ab
    • Adicionar à lista

    Afinação da cifra

    Afinador online

      0 comentários

      Ver todos os comentários

      Entre para o Cifra Club PRO

      Tenha acesso a benefícios exclusivos no App e no Site

      • Chega de anúncios

      • Badges exclusivas

      • Mais recursos no app do Afinador

      • Atendimento Prioritário

      • Aumente seu limite de lista

      • Ajude a produzir mais conteúdo

      Cifra Club Pro

      Aproveite o Cifra Club com benefícios exclusivos e sem anúncios
      Cifra Club Pro
      Aproveite o Cifra Club com benefícios exclusivos e sem anúncios
      Ops (: Contenido disponible sólo en portugués.
      OK