Cifra Club

Sea Song

Doves

Cifra: Principal (violão e guitarra)
Selo Cifra Club: esta cifra foi revisada para atender aos critérios oficiais da nossa Equipe de Qualidade.
tom: Dm
E|-------0-----------0-----|-0-----------0-----------|
B|-----7---7-------7---7---|---6-------6---6-------6-|
G|---7-------7---7-------7-|-----7---7-------7---7---|
D|-9-----------9-----------|-------8-----------8-----|
A|-------------------------|-------------------------|
E|-------------------------|-------------------------|

E|---------0-----------0---|-------------------------|
B|-------6-----------6-----|-8-----6-----5-----------|
G|-----5-----5-----5-----5-|---5-----5-----5---7---5-| repeat
D|---7-----------7---------|-----5-----5-----5---5---|
A|-8-----------8-----------|-------------------------|
E|-------------------------|-------------------------|


[Chorus]

E|-------5-----------5-----|
B|---6-5---5-6---6-5---6-5-|
G|-7-----------7-----------|
D|-------------------------|
A|-------------------------|
E|-------------------------|

E|-------5-----------5-----|
B|---6-5---5-6---6-5---6-5-|
G|-------------------------|
D|-5-----------5-----------|
A|-------------------------|
E|-------------------------|

E|-------5-----------5-----|
B|---6-5---5-6---6-5---6-5-|
G|-------------------------|
D|-8-----------8-----------|
A|-------------------------|
E|-------------------------|

E|-------5-----------------|
B|---6-5---5-6---5-6-8-6-5-|
G|-5-----------6-----------|
D|-------------------------|
A|-------------------------|
E|-------------------------|

This bit should be mostly correct.

This song is made up more or less of the previous two parts. As well,
a second guitar appears to be strumming the following chords:

Verse:

E|--0---0---0---0---|
B|--7---6---1---8---|
G|--7---7---2---9---|
D|--9---8---3---10--| Repeat these through verse.
A|--9---8---3---10--|
E|--x---x---x---x---|
Outros vídeos desta música
    17 exibições
      • ½ Tom
      • Am
      • Bbm
      • Bm
      • Cm
      • C#m
      • Dm
      • Ebm
      • Em
      • Fm
      • F#m
      • Gm
      • G#m
    • Adicionar à lista

    Afinação da cifra

    Afinador online

      0 comentários

      Ver todos os comentários

      Conseguiu tocar?

      0Tocaram0Ainda não

      Grave um vídeo tocando Sea Song e nos envie!

      Toque também

      1. Imagem do artista The VerveBitter Sweet Symphony The Verve
      2. Imagem do artista British Sea PowerThe Smallest Church In Sussex British Sea Power
      3. Imagem do artista The CharlatansNorth Country Boy The Charlatans
      4. Imagem do artista ElbowAsleep In The Back Elbow

      Entre para o Cifra Club PRO

      Tenha acesso a benefícios exclusivos no App e no Site

      • Chega de anúncios

      • Mais recursos no app do Afinador

      • Atendimento Prioritário

      • Aumente seu limite de lista

      • Ajude a produzir mais conteúdo

      Cifra Club Pro

      Aproveite o Cifra Club com benefícios exclusivos e sem anúncios
      Cifra Club Pro
      Aproveite o Cifra Club com benefícios exclusivos e sem anúncios
      OK