Cifra Club

We Gotta Power

Dragon Ball

Cifra: Principal (violão e guitarra)
tom: Dm
 Posso pressentir o perigo e o caos
E|----------------------------------------------
B|----------------------------------------------
G|----------------------------------------------
D|---------------------------------10-9-7-9-7---
A|-555-5/7777--7/9-10-9-7-5-5/7-7---------------
E|----------------------------------------------

  E ninguém agora vai me amedrontar
E|--------------------------------------
B|------------------------2-------------
G|----------------------3---3-2-0-------
D|---99-7-55-4-0-0p2-2------------------
A|-7------------------------------------
E|--------------------------------------
  Com a minha mente vou a mil lugares
E|----------------------------------------------
B|----------------------------------------------
G|----------------------------------------------
D|---------------------------------10-9-7-9-7---
A|-555-5/7777--7/9-10-9-7-5-5/7-7---------------
E|----------------------------------------------

  E a imaginação me dá forças pra voar
E|--------------------------------------
B|------------------------2-------------
G|----------------------3---3-2-0-------
D|---99-7-55-4-0-0p2-2------------------
A|-7------------------------------------
E|--------------------------------------

(refrão)
Sonhos desejamos alcançar
E|--------------------------------------
B|--------------------------------------
G|-4--2--/7--5-4-2-2p4-4-2p0-0----------
D|--------------------------------------
A|--------------------------------------
E|--------------------------------------

Ser alguém com o poder maior que você já tem
E|--------------------------------------
B|--------------------------------------
G|-4--2--/7--5-4-2-444-445-4-4----------
D|--------------------------------------
A|--------------------------------------
E|--------------------------------------

Liberdade é correr pelo céu
E|------------------------
B|-8-7-5-3-3/5-5-5-5------
G|-------------------4-4-4
D|------------------------
A|------------------------
E|------------------------

Sempre unidos vamos triunfar
E|---------------------------------
B|-8-7-5-3-0-0-3-5-5---------------
G|---------------------------------
D|---------------------------5-4-2-
A|---------------------2-5-2------5
E|---------------------------------

E se a nossa luta é pra valer, Vou mostrar meu valor
E|---------------------------------------------------
B|-5-7-8-8--5-5-7-8-8-------5-3-3-5-7-7--3--3-7-7-3--
G|---------------------------------------------------
D|---------------------------------------------------
A|---------------------------------------------------
E|---------------------------------------------------

Dragon ball z, meu compromisso é sempre vencer
E|----------------------------------------------------
B|-8-7-5-3-----0-000-0-000-000--333-333-333-0---5/7/8-
G|----------------------------------------------------
D|----------------------------------------------------
A|----------------------------------------------------
E|----------------------------------------------------

(PONTE) depois Repete refrão mais uma vez
E|-----------------------------------
B|-----------------------------------
G|--9---7--4-------------------------
D|--9---7--4---4-3-2-----------------
A|--7---5--2---2-1-0-5-2-------------
E|-------------------3-0-------------

(Final)

E|-----------------------------------
B|-----------------------------------
G|--9---7--4-------------------------
D|--9---7--4---4-3-2------2----------
A|--7---5--2---2-1-0-5----2----------
E|-------------------3----0----------
00:00 / 00:00
Outros vídeos desta música
Repetir
Outros vídeos desta música
Composição de Dragonball
Colaboração e revisão:
  • []Miranda[] Felipe
6.159 exibições
    • ½ Tom
    • Am
    • Bbm
    • Bm
    • Cm
    • C#m
    • Dm
    • Ebm
    • Em
    • Fm
    • F#m
    • Gm
    • G#m
  • Adicionar à lista

    0 comentários

    Ver todos os comentários

    Conseguiu tocar?

    1 Tocaram 0 Ainda não

    Grave um vídeo tocando We Gotta Power e nos envie!

    Entre para oCifra Club PRO

    Tenha acesso a benefícios exclusivos no App e no Site

    • Chega de anúncios

    • Prioridade de compra em lançamentos

    • Mais recursos no app do Afinador

    • Atendimento Prioritário

    • Descontos nos produtos Cifra Club

    • Ajude a produzir mais conteúdo

    00:00 / 00:00

    Cifra Club Pro

    Aproveite o Cifra Club com benefícios exclusivos e sem anúncios
    Cifra Club Pro
    Aproveite o Cifra Club com benefícios exclusivos e sem anúncios
    OK