Cifra Club

I Found a Way

Drake Bell

Cifra: Versão 8 (violão e guitarra)
tom: E
(intro) E E7 A B

E                       A            B
I never thought that it'd be so simple but
E              A         B
I found a way, I found a way
E                       A            B
I always thought that it'd be too crazy but
E              A         B
I found a way, I found a way

(pré-refrão)
C#m      F#            A
 If you open up your mind
 Am
(See what's inside)

        C#m        F#        A       Am
E |---------------------------------5--||
B |--------5------------------------5--||
G |----6-------------3---------6----5--||
D |------6-------4---------7--------7--||
A |--4-------------4---------7------7--||
E |------------2---------5----------5--/

(refrão)
E           F#                A        Am
It's gonna take some time, to realize
E           F#               A                Am
But if you look inside, I'm sure you'll find
E           F#                      A
Over your shoulder you know that I told you
                                           F#
I'll always be pickin' you up when you're down
    A            Am   E
So just turn around

E                      A              B
Now that I know that anything is possible
E              A         B
I found a way, I found a way
E                    A            B
No one can break what is so unbreakable
E              A         B
I found a way, I found a way

(pré-refrão)
C#m      F#            A
 If you open up your mind
 Am
(See what's inside)

        C#m        F#        A       Am
E |---------------------------------5--||
B |--------5------------------------5--||
G |----6-------------3---------6----5--||
D |------6-------4---------7--------7--||
A |--4-------------4---------7------7--||
E |------------2---------5----------5--/

(refrão)
E           F#                A        Am
It's gonna take some time, to realize
E           F#               A                Am
But if you look inside, I'm sure you'll find
E           F#                      A
Over your shoulder you know that I told you
                                           F#
I'll always be pickin' you up when you're down
    A            Am   E
So just turn around

 E E
No one cares, what you give
You know you gotta live like you wanna live
 E E
When it's time, to be free
You know you gotta be what you wanna be

(solo)
E |--------------------------------12b----------12--12---|
B |-5b-----------------------------15b-15-12-15---12---X-|
G |-7b--7----------------------------------------------X-|
D |----7--------------5h7p5-7-7p5----------------------X-|
A |-------5h7p5-7-7p5------------------------------------|
E |------------------------------------------------------|

E |------------------3-0-----0h3-5-5-3-0--0--0-3-0--------|
B |--------------------------------------3--3-------------|
G |----------------------2--------------------------------|
D |-12h14p12-14-14p12-----2------------------------2-0--0-|
A |----------------------------------------------------2--|
E |-------------------------------------------------------|

E |----------------3--0-3p0--------------------------|
B |-----------------3-------3p0----------------------|
G |-2--2-2-0--------------------2p0------------------|
D |----------2p0h2------------------2p0--------------|
A |-------------------------------------2p0----------|
E |------------------------------------------3p0-3p0-|

C#m      F#            A
 If you open up your mind
 Am
(See what's inside)

        C#m        F#        A       Am
E |---------------------------------5--||
B |--------5------------------------5--||
G |----6-------------3---------6----5--||
D |------6-------4---------7--------7--||
A |--4-------------4---------7------7--||
E |------------2---------5----------5--/

(refrão)
E           F#                A        Am
It's gonna take some time, to realize
E           F#               A                Am
But if you look inside, I'm sure you'll find
E           F#                      A
Over your shoulder you know that I told you
                                           F#
I'll always be pickin' you up when you're down
    A            Am   E
So just turn around
Ooooohh !
00:00 / 00:00
Outros vídeos desta música
Repetir
Outros vídeos desta música
Composição de Drake Bell / Michael Corcoran
Colaboração e revisão:
  • Luiz Gomes
  • Gabriel Oliveira
1.203 exibições
    • ½ Tom
    • A
    • Bb
    • B
    • C
    • Db
    • D
    • Eb
    • E
    • F
    • F#
    • G
    • Ab
  • Adicionar à lista

    0 comentários

    Ver todos os comentários

    Entre para oCifra Club PRO

    Tenha acesso a benefícios exclusivos no App e no Site

    • Chega de anúncios

    • Prioridade de compra em lançamentos

    • Mais recursos no app do Afinador

    • Atendimento Prioritário

    • Descontos nos produtos Cifra Club

    • Ajude a produzir mais conteúdo

    00:00 / 00:00

    Cifra Club Pro

    Aproveite o Cifra Club com benefícios exclusivos e sem anúncios
    Cifra Club Pro
    Aproveite o Cifra Club com benefícios exclusivos e sem anúncios
    OK