Cifra Club

Another day

Dream Theater

Cifra: Principal
exibições 85.893
Tom: A
Versão 1
-======-

Intro:  (guitar + piano arranjado para guitarra)


E |------------------------------------------
B |--0--------0-----------0--------0---------
G |------3-------3------------3-------3-3----  (repete)
D |--------4-------4------------4---------4--
A |--------------------------------4---------
E |--4--------2--------2--0-------------2----



Intro solo:


    G#5         F#5    E5            C#5    F#5     G#5        F#5         C#5
E |----------------------------------------------------------------------------
B |--12~---11--9-------------------------------------------------------------9-
G |--------------8~-----------4--/8--6---4--3--6--4---6--3---4----------11----
D |------------------------/6--------------------------~---------4?6--/9-------
A |----------------------------------------------------------------------------
E |----------------------------------------------------------------------------


            E5
E |----------14~-
B |--11-12-------
G |--------------
D |--------------
A |--------------
E |--------------


    Am           F/A  Am            G7/4   G
    Live another day,climb a little higher
    F             C          Bb   G7/4   G
    Find another reason to stay
    Am            F/A    Am           G7/4   G
    Ashes in your hands,mercy in your eyes
    F           C             Bb       Am
    If you're searching for a silent sky...

        Dm7           C/E   F            C
    You won't find it here,look another way
        Dm7           C/E      F         G7/4   G
    You won't find it here,so die another day

         Am             F/A        Am            G7/4    G
    The coldness of his words,the message in his silence
     F        C             Bb      G7/4    G
    Face the candle to the wind..."
    Am                   F/A
    This distance in my voice
    Isn't leaving you a choice
       Am           G7/4  G
    So if you're looking for
    F  C           Bb     Am
    A time to run away,hey,hey

    (CHORUS)

     C                         Bb
    They took pictures of our dreams,
                               Am
    Rain to hide behind the stairs
                              G7/4      G            F
    And said maybe when it's right for you, they'll fall
    G#                     C#/G#                            D#
    But if they don't come down, resist the need to pull them in
                    Fm   D#       C#
    And throw them away better to save the mystery,
    C7/4    C7              Fm        G
    Than surrender to the secret...

_______________________________________________________





___________________________________________________________________

Versão 2
-======-

Key:

^   = hammer/pull
/   = slide
(b) = bend
~   = vibrato
~~  = heavy vibrato
t   = trill (repeated hammers/pulls)
ah  = artificial (pinched) harmonic

Intro:  (guitar + piano arranjado para guitarra)


E |------------------------------------------
B |--0--------0-----------0--------0---------
G |------3-------3------------3-------3-3----  (repete)
D |--------4-------4------------4---------4--
A |--------------------------------4---------
E |--4--------2--------2--0-------------2----



Intro solo:


    G#5         F#5    E5            C#5    F#5     G#5        F#5         C#5
E |----------------------------------------------------------------------------
B |--12~---11--9-------------------------------------------------------------9-
G |--------------8~-----------4--/8--6---4--3--6--4---6--3---4----------11----
D |------------------------/6--------------------------~---------4—6--/9-------
A |----------------------------------------------------------------------------
E |----------------------------------------------------------------------------


            E5
E |----------14~-
B |--11-12-------
G |--------------
D |--------------
A |--------------
E |--------------



        Rhythm fig. 1: (volume swells)

E |-------------------------------------------------------------
B |---------------------------------------------7------5--------
G |--4---6---8------9------8------6------4--------------------4-
D |-------------------------------------------------------------
A |-------------------------------------------------------------
E |-------------------------------------------------------------



Verso 1:  (piano arranjado para guitarra)


    G#m          E/G#        G#m           F#sus4 F#      E
E |------------------------------------------------2-------4-----------
B |--4------4-----5-----5-----4-----4--------2-----2-------5-----5-----
G |--4------4-----4-----4-----4-----4--------4-----3-------4-----4-----
D |--6---6-----6-----6-----6-----6-----6-----4--4-----4-------6-----6--
A |--------------------------------------------------------------------
E |--4------------4-----------4--------------2-------------0-----------


    Live another day,        climb a little higher.             Find


                                 (w/rhythm fig. 1)

    B              A             F#sus4 F#/E      G#m           E/G#
E |--2--------------0-----0---------------------------------4-------------4--
B |--4-----4--------2-----2--------2-----2---------4-------------5-----------
G |--4-----4--------2--2-----2-----4-----3---------4------4------4------4----
D |--4--4-----4--------------------4--4-----4------6---6------6--6---6------6
A |--2--------------0--------------------------------------------------------
E |--------------------------------2-----0---------4-------------4-----------


   another  reason to stay.                       Ashes in your hands,


   G#m           F#sus4 F#/E   E             B               A      E
   mercy in your eyes.             If you're searching for a silent sky...


Refrão:

    C#m7            B11/D#      E                B11


E |--------------0-------------0--------------0---------0--------
B |--------0------0--------0----0---------0----0----------0------
G |------6---------6-----8-------8------9-------9-----------8----
D |----6-----6---------9-----9--------9-----9---------9-------9--
A |--4---------------6--------------7----------------9----------9
E |-------------------------------------------------7------------


You won't find it   here.          Look another way.

    C#m7            B11/D#      E                B11


E |--------------0-------------0--------------0------------------
B |--------0------0--------0----0---------0----0--------0--------
G |------6---------6-----8-------8------9-------9---------3------
D |----6-----6---------9-----9--------9-----9---------4-----4----
A |--4---------------6--------------7----------------4---------4-
E |-------------------------------------------------2------------


You won't find it here.         So die another day.

Harmonia do solo de sax:

    G#m7(9)      F#11     G#m7(9)     F#11/C#           F#11


E |----------------------------------------------------------------------
B |---------0-----------0-----------0-----------0----------0-------------
G |-------3---3-------3---3-------3---3-------3---3------3---3----3------
D |-----4------4----4-------4---4-----------4------4---4------------4----
A |--------------------------------------4-----------4----------------4--
E |--4------------2-----------0--------------------------------2---------



    G#m7(9)       F#11      C#m7         E


E |---------------------------------------0--0------------------------------
B |---------0-----------0-------------0------0------------------------------
G |-------3---3-------3---3---------6--------9------------------------------
D |-----4------4----4-------4-----6-----6----9------------------------------
A |-----------------------------4------------7------------------------------
E |--4-------------2-------------------------0------------------------------



Solo de sax arranjado para guitarra:


E |--19--18--16-------------------------------------------------------------
B |-------------16~-------12—14/16--14---12---11--14--12-----14---11~-------
G |--------------------13---------------------------------------------------
D |-------------------------------------------------------------------------
A |-------------------------------------------------------------------------
E |-------------------------------------------------------------------------


E |-------------------------14~------------------------------------------
B |----12------------11--12----------------------------------------------
G |--------11—13~--------------------------------------------------------
D |----------------------------------------------------------------------
A |----------------------------------------------------------------------
E |----------------------------------------------------------------------


Verse 2:

(toque a mesma seqüência de acordes do verso 1)

    G#m             E/G#
The coldness of his words.
    G#m        F#sus4  F#
The message in his silence.
                                (Fill 1)
E         B                    A   F#11  F#11/E
"Face the candle to the wind..."


Fill 1 (sax arranjado para guitarra)

E |--/19-19-----------------------
B |----------19-19-17--17--16-----
G |---------------------------16--
D |-------------------------------
A |-------------------------------
E |-------------------------------



    G#m             E/G#
This distance in my voice.
      G#m           F#sus4  F#
Isn't leaving you a choice.
             E                         Aadd9  E/G#
So if you're looking for a time to run away...

Refrão:

    C#m7            B11/D#      E                B11


E |--------------0-------------0--------------0---------0--------
B |--------0------0--------0----0---------0----0----------0------
G |------6---------6-----8-------8------9-------9-----------8----
D |----6-----6---------9-----9--------9-----9---------9-------9--
A |--4---------------6--------------7----------------9----------9
E |-------------------------------------------------7------------


You won't find it   here.          Look another way.

    C#m7            B11/D#      E                N.C.


E |--------------0-------------0-------------0-------------------
B |--------0------0--------0----0---------0---0------------------
G |------6---------6-----8-------8------9------9—4---------------
D |----6-----6---------9-----9--------9-----9----4---------------
A |--4---------------6--------------7--------------7-6-4---------
E |-----------------------------------------------------7-6-4-2-0


You won't find it here.         So die another day.


B5  B5/A  G#5  F#5  E5


B5                           B5/A
  They took pictures of our dreams,
                        G#5
ran to hide behind the stairs

                               F#5                 E5
And said maybe when it's right    for you, they'll fall.

G5                       C5
  But if they don't come down, resist the need to pull them in.
D5                    E5  D5        C5
  And throw them away.    Better to save the mystery,

B5                    (Riff 1)
Than surrender to the secret...


E |-----------------------------------------------------------------------------------
B |-----------------------------------------------------------11b--11b-9--11~---11-9--
G |-----------------------------------------------------------------------------------
D |-----------------------------------------------------------------------------------
A |-------5--7----7--5-------------5--7----7--5---------------------------------------
E |-0--7---------------7--0-----7----------------7------------------------------------


E |------------------------------------------------------------------------------------
B |-12b~--12~----12-11-------------------------12~-------------------------------------
G |--------------------11/6--------------8-9~-----------8b~~-8~-8-9-11~--11-9-8--------
D |------------------------------8-9-11------------------------------------------------
A |------------------------------------------------------------------------------------
E |------------------------------------------------------------------------------------


E |--------------------------------------------------------------------16-18-19-21b~---
B |-----------------------------------------------------------16-17-19-----------------
G |--------------------------------13-15-16----------15-16-18--------------------------
D |11-9-7---7-------------13-15-16----------14-16-18-----------------------------------
A |------11---11/9-9-------------------------------------------------------------------
E |------------------------------------------------------------------------------------


E |21----21b~~~~--------19--21b~-22b~-21~---19-18~-19-21--18-15------17-14--------------
B |-----------------21-----------------------------------------16---------15------------
G |--------------------------------------------------------------15---------15----18-16~
D |----------------------------------------------------------------------------18-------
A |-------------------------------------------------------------------------------------
E |-------------------------------------------------------------------------------------


E |-----------------------------19-17~-----21-----19------16-----14-----11~-------------
B |-----------------------19-21----------19--19/17---17/14--14/12--12-9-----------------
G |----16--------16~-18-20--------------------------------------------------------------
D |-16---18-16--------------------------------------------------------------------------
A |----------18-------------------------------------------------------------------------
E |-------------------------------------------------------------------------------------



OBS: Você precisa escutar a música pra pegar o ritmo da velocidade do solo


B5 - X244XX
B5/A - X044XX
G#5 - 466XXX
F#5 - 244XXX
E5 - 022XXX
G5 - 355XXX
C5 - X355XX
D5 - X577XX



Cifra por: Professor Reinaldo Figueiredo. Informações sobre aulas em BH/MG.
Acordes para:
    Colaboração e revisão:
    • Anna Gabriella
    • Danilo Fajani

    0 comentários

      mostrar mais comentários

      Conseguiu tocar?

      6tocaram1ainda não

      Grave um vídeo tocando Another day e mande pra gente!

      00:00 / 00:00
      outros vídeos desta música
      repetirqualidadeautomática
      Outro vídeos desta música
        00:00 / 00:00
        automática
        OK