Cifra Club

Aprenda

Turn So Cold

Drowning Pool

Cifra: Principal (violão e guitarra)
tom: Db
Tuning Drop B:  B F# B E G# C#

Intro:
C#|----6---------3-3---|-----6-6-8-8-8--5h6p5---|----6---------3-3---|----6-6-8-8-5b~~~~~|
G#|--------5-----------|---------------------5--|--------5-----------|-------------------|
E|0-0---0----0--------|------------------------|0-0---0----0--------|-------------------|
B|--------------------|-0-0--------------------|--------------------|0-0----------------|
F#|--------------------|------------------------|--------------------|-------------------|
B|--------------------|------------------------|--------------------|-------------------|

Verse:
C#|--------------------|--------------------|---------------------|----------------------|
G#|--------------------|--------------------|---------------------|----------------------|
E|--------------------|---------------55---|---------------------|----------------------|
B|-----7-7-----8877---|-----7-7-----88--88-|-----7-7-----8877----|-----7-7-----8-8-77---|
F#|---5-----8-8-----88-|---5-----8-8--------|---5-----8-8------88-|---5-------5--------88|
B|-5------------------|-5------------------|-5-------------------|-5-------5------------|

C#|--------------------|--------------------|---------------------|----------------------|
G#|--------------------|--------------------|---------------------|----------------------|
E|--------------------|---------------55---|---------------------|----------------------|
B|-----7-7-----8877---|-----7-7-----88--88-|-----7-7-----8877----|-----7-7-----8-8------|
F#|---5-----8-8-----88-|---5-----8-8--------|---5-----8-8------88-|---5------------------|
B|-5------------------|-5------------------|-5-------------------|-5-------8-8----------|

Chorus:
   Gtr.1
C#|-----------------------------|------------------------------------|
G#|-----------------------------|------------------------------------|
E|-----------------------------|------------------------------------|
B|-2-2-2-2-2-5-5-5-5-5-5-5-5-5-|10-10-10-10-10-10-7-7-7-7-7-7-7-7-7-|
F#|-2-2-2-2-2-5-5-5-5-5-5-5-5-5-|10-10-10-10-10-10-7-7-7-7-7-7-7-7-7-|
B|-2-2-2-2-2-5-5-5-5-5-5-5-5-5-|10-10-10-10-10-10-7-7-7-7-7-7-7-7-7-|
   
   Gtr.2
C#|-----------------------------|------------------------------|
G#|-----------------------------|---------------------12-------|
E|------------------11---------|------------------------12-11-|
B|----------12-9-12----12-9-12-|-------------12-9-12----------|
F#|-----------------------------|------------------------------|
B|-----------------------------|------------------------------|
   
   Gtr.1
C#|-----------------------------|-----------------------------|
G#|-----------------------------|-----------------------------|
E|-----------------------------|-----------------------------|
B|-2-2-2-2-2-5-5-5-5-5-5-5-5-5-|-0-0-0-0-x-0-0-0-0-x-3-3-3-3-|
F#|-2-2-2-2-2-5-5-5-5-5-5-5-5-5-|-0-0-0-0-x-0-0-0-0-x-3-3-3-3-|
B|-2-2-2-2-2-5-5-5-5-5-5-5-5-5-|-0-0-0-0-x-0-0-0-0-x-3-3-3-3-|

   Gtr.2
C#|-----------------------------|-----------------------------|
G#|-----------------------------|-----------------------------|
E|------------------11---------|-----------------------------|
B|----------12-9-12----12-9-12-|-----------------------------|
F#|-----------------------------|-----------------------------|
B|-----------------------------|-----------------------------|

Interlude:
C#|-------------------------|-------------------------|
G#|-------------------------|-------------------------|
E|-------------------------|-------------------------|
B|-----7-7-----8-8--5-5h7--|-----7-7---7p5p4-5p4---4-|
F#|-------------------------|---------------------5---|
B|-5-5-----8-8-------------|-5-5-----8---------------|

Bridge:
   Gtr.1
C#|-----------------|-------------|
G#|-----------------|-------------|
E|-----------------|-------------|
B|-2--10-10-10-10--|-7--9-9-9-9--|
F#|-2--10-10-10-10--|-7--9-9-9-9--|
B|-2--10-10-10-10--|-7--9-9-9-9--|

   Gtr.2
C#|-12-15-17-19-19-17-19-|-19-17-15-19-19-17-19-17-|
G#|----------------------|-------------------------|
E|-9--12-14-16-16-14-16-|-16-14-12-16-16-14-16-14-|
B|----------------------|-------------------------|
F#|----------------------|-------------------------|
B|----------------------|-------------------------|

   Gtr.1
C#|-----------------|-----------------------------|
G#|-----------------|-----------------------------|
E|-----------------|-----------------------------|
B|-2--10-10-10-10--|-7-7-7-7-x-7-7-7-7-x-5-5-5-5-|
F#|-2--10-10-10-10--|-7-7-7-7-x-7-7-7-7-x-5-5-5-5-|
B|-2--10-10-10-10--|-7-7-7-7-x-7-7-7-7-x-5-5-5-5-|

   Gtr.2
C#|-12-15-17-19-19-17-19-|-19-19-19-19-x-19-19-19-19-x-17-17-17-17|
G#|----------------------|----------------------------------------|
E|-9--12-14-16-16-14-16-|-16-16-16-16-x-16-16-16-16-x-14-14-14-14|
B|----------------------|----------------------------------------|
F#|----------------------|----------------------------------------|
B|----------------------|----------------------------------------|

That's pretty much it. I had most of the song figured out   but I got some helping reference 
from Fuel Collector's guitar pro tab   so a good amount of credit goes to him (or her?) as well. :)

************************************

| /   slide up
|    slide down
| h   hammer-on
| p   pull-off
| ~   vibrato
| +   harmonic
| x   Mute note
| b   Bend
| pb  Pre-bend
| br  Bend release
| pbr Pre-bend release
| brb Bend release bend
Composição de Bobby Huff / Drowning Pool
Colaboração e revisão:
  • Pedro Rodrigues
201 exibições
    • ½ Tom
    • A
    • Bb
    • B
    • C
    • Db
    • D
    • Eb
    • E
    • F
    • F#
    • G
    • Ab
  • Adicionar à lista

    0 comentários

    Ver todos os comentários

    Conseguiu tocar?

    0 Tocaram 0 Ainda não

    Grave um vídeo tocando Turn So Cold e nos envie!

    00:00 / 00:00
    Outros vídeos desta música
    Repetir Qualidade Automático
    Outros vídeos desta música
    00:00 / 00:00
    Automático

    Cifra Club Pro

    Aproveite o Cifra Club com benefícios exclusivos e sem anúncios
    Cifra Club Pro
    Aproveite o Cifra Club com benefícios exclusivos e sem anúncios
    OK