Cifra Club

Foreshadowing

Duncan Sheik

Cifra: Principal (violão e guitarra)
Selo Cifra Club: esta cifra foi revisada para atender aos critérios oficiais da nossa Equipe de Qualidade.
tom: C#m
E|----------------|----------------|----------------|----------------|
B|------2---------|------2---------|------2---------|----0-2-4=0-----|
G|----------0-----|----------0-----|----------0-----|--0---------0---| (repeat 4x)
D|--------------0-|--------------0-|--------------0=| 1-------------1-|
A|----------------|----------------|----------------|----------------|
0---------------|0---------------|0---------------|----------------|

[A:]
Maybe I'll just whisper...
| | | | | | | | | | | | | | | |
E|----------------|----------------|----------------|----------------|
B|------2---------|------2---------|------2---------|------2---------|
G|----------0-----|----------0-----|----------0-----|----------0-----|
D|--------------0-|--------------0-|--------------0-|--------------0-|
A|----------------|----------------|----------------|----------------|
0---------------|0---------------|0---------------|0---------------|

| | | | | | | | | | | | | | | |
E|----------------|----------------|----------------|----------------|
B|------2---------|------2---------|------2---------|------2---------|
G|----------0-----|----------0-----|----------0-----|----------0-----|
D|--------------0-|--------------0-|--------------0-|--------------0-|
A|----------------|----------------|----------------|----------------|
0---------------|0---------------|0---------------|0---------------|

| | | | | | | | | | | | | | | |
E|----------------|----------------|----------------|----------------|
B|------0---------|------0---------|------0---------|------0---------|
G|----------5-----|----------5-----|----------4-----|----------4-----|
D|--------------5-|--------------5-|--------------5-|--------------5-|
A|----------------|----------------|----------------|----------------|
E|5---------------| 5---------------|5---------------|5---------------|

| | | | | | | | | | | | | | | |
E|----------------|----------------|----------------|----------------|
B|------2---------|------2---------|------2---------|------2---------|
G|----------0-----|----------0-----|----------0-----|----------0-----|
D|--------------0-|--------------0-|--------------0-|--------------0-|
A|----------------|----------------|----------------|----------------|
0---------------|0---------------|0---------------|0---------------|

[B:]
I wanna sing of better times...
| | | | | | | | | | | | | | | |
E|----------------|----------------|----------------|----------------|
B|------2---------|------2---------|------2---------|------2---------|
G|----------0-----|----------0-----|----------0-----|----------0-----|
D|--------------0-|--------------0-|--------------0-|--------------0-|
A|----------------|----------------|----------------|----------------|
0---------------|0---------------|0---------------|0---------------|

| | | | | | | | | | | | | | | |
E|----------------|----------------|----------------|----------------|
B|------2---------|------2---------|------2---------|------2---------|
G|----------0-----|----------0-----|----------0-----|----------0-----|
D|--------------0-|--------------0-|--------------0-|--------------0-|
A|----------------|----------------|----------------|----------------|
0---------------|0---------------|0---------------|0---------------|

| | | | | | | | | | | | | | | |
E|----------------|----------------|----------------|----------------|
B|------0---------|------0---------|------0---------|------0---------|
G|----------5-----|----------5-----|----------4-----|----------4-----|
D|--------------5-|--------------5-|--------------5-|--------------5-|
A|----------------|----------------|----------------|----------------|
E|5---------------| 5---------------|5---------------|5---------------|

| | | | | | | | | | | | | | | |
E|----------------|----------------|----------------|----------------|
B|------2---------|------2---------|------2---------|------2---------|
G|----------0-----|----------0-----|----------0-----|----------0-----|
D|--------------0-|--------------0-|--------------0-|--------------0-|
A|----------------|----------------|----------------|----------------|
0---------------|0---------------|0---------------|0---------------|

| | | | | | | | | | | | | | | |
E|----------------|----------------|----------------|----------------|
B|------0---------|------0---------|------0---------|------0---------|
G|----------5-----|----------5-----|----------5-----|----------5-----|
D|--------------5-|--------------5-|--------------4-|--------------4-|
A|----------------|----------------|----------------|----------------|
E|5---------------| 5---------------|5---------------|5---------------|

| | | | | | | | | | | | | | | |
E|----------------|----------------|----------------|----------------|
B|------2---------|------2---------|------2---------|------2---------|
G|----------0-----|----------0-----|----------0-----|----------0-----|
D|--------------0-|--------------0-|--------------0-|--------------0-|
A|----------------|----------------|----------------|----------------|
0---------------|0---------------|0---------------|0---------------|

[Chorus]
But the more and more I hear it...
| | | | | | | | | | | | | | | |
E|----------------|----------------|----------------|----------------|
B|------2---------|------2---------|------5---------|------0---------|
G|----------0-----|----------0-----|----------5-----|----------0-----| (repeat)
D|--------------1-|--------------1-|----------------|--------------0-|
A|4---------------| 4---------------|----------------|----------------|
E|----------------|----------------| 5---------------|0---------------|

| | | | | | | | | | | | | | | |
E|----------------|----------------|----------------|----------------|
B|------2---------|------2---------|------0---------|------5---------|
G|----------0-----|----------0-----|----------0-----|----------5-----|
D|--------------1-|--------------1-|----------------|----------------|
A|4---------------| 4---------------|2---------------|----------------|
E|----------------|----------------|----------------| 5---------------|

| | | | | | | | | | | | | | | |
E|----------------|----------------|----------------|----------------|
B|------0---------|------0---------|------0---------|------5---------|
G|----------4-----|----------4-----|----------0-----|----------5-----|
D|--------------3-|--------------3-|----------------|------------5---|
0---------------|0---------------|2---------------|----------------|
E|----------------|----------------|----------------| 5---------------|

| | | | | | | | | | | |
E|----------------|----------------|----------------|
B|------5---------|------5---------|------5---------|
G|----------5-----|----------5-----|----------5-----|
D|--------------5-|--------------5-|-------------5--|
A|----------------|----------------|----------------|
E|5---------------| 5---------------|5---------------|

[Instrumental]
| | | | | | | | | | | | | | | |
E|----------------|----------------|----------------|----------------|
B|------2-------7-|-------4------11|------11--------|--9-------9-----|
G|----------0-----|--0-------0-----|--0-------0---9=| 10--10--10--10--| (repeat 4x)
D|------------0---|----0-------0---|----0-------0---|------12------12|
A|----------------|----------------|----------------|----------------|
0---------------|----------------|----------------|----------------|

[B:]
So anything can happen...
[Chorus]
[Instrumental]
| | | | | | | | | | | | | | | |
E|----------------|----------------|----------------|----------------|
B|------2-------7-|------4-------11|------11--------|--9-------9-----|
G|----------0-----|--0-------0-----|--0-------0---9=| 10--10--10--10--| (repeat 3x)
D|------------0---|----0-------0---|----0-------0---|------12------12|
A|----------------|----------------|----------------|----------------|
0---------------|----------------|----------------|----------------|

| | | | | | | | | | | | | | | |
E|----------------|----------------|----------------|----------------|
B|------2-------7-|------4-------0-|------0-------0-|------0-------2-|
G|----------0-----|--0-------0-----|--4-------4-----|--4-------4-----|
D|------------0---|----0-------0---|----0-------0---|----0-------0---|
A|----------------|----------------|----------------|----------------|
0---------------|----------------|----------------|----------------|

| | | | | | | | | | | | | | | |
E|----------------|----------------|----------------|----------------|
B|------2-------2-|------2-------0-|------0-------0-|------0-------2-|
G|--4-------4-----|--4-------4-----|--4-------4-----|--4-------4-----|
D|----0-------0---|----0-------0---|----0-------0---|----0-------0---|
A|----------------|----------------|----------------|----------------|
E|----------------|----------------|----------------|----------------|

| | | | | | | |
E|----------------|----------------|
B|------2-------2-|------2---------|
G|--4-------4-----|--4-------4-----|
D|----0-------0---|----0-------0---|
A|----------------|----------------|
E|----------------|----------------|

[C: with lead-guitar]
| | | | | | | | | | | | | | | |
E|----------------|----------------|----------------|----------------|
B|------4---------|------4---------|------4---------|------0---------|
G|----------4-----|----------4-----|----------4-----|----------0-----|
D|----------------|----------------|----------------|----------------|
A|2---------------| 2---------------|0---------------|----------------|
E|----------------|----------------|----------------| 2---------------|

| | | | | | | |
E|----------------|----------------|
B|------0---------|------0---------|
G|----------5-----|----------4-----| (repeat 2)
D|----------------|----------------|
A|----------------| 0---------------|
0---------------|----------------|

And while you struggle...
| | | | | | | | | | | | | | | |
E|----------------|----------------|----------------|----------------|
B|------4---------|------4---------|------4---------|------0---------|
G|----------4-----|----------4-----|----------4-----|----------0-----|
D|----------------|----------------|----------------|----------------|
A|2---------------| 2---------------|0---------------|----------------|
E|----------------|----------------|----------------| 2---------------|

| | | | | | | |
E|----------------|----------------|
B|------0---------|------0---------|
G|----------5-----|----------4-----|
D|----------------|----------------|
A|----------------| 0---------------|
E|5---------------|----------------|

| | | | | | | | | | | | | | | |
E|----------------|----------------|----------------|----------------|
B|------4---------|------4---------|------4---------|------0---------|
G|----------4-----|----------4-----|----------4-----|----------0-----|
D|----------------|----------------|----------------|----------------|
A|2---------------| 2---------------|0---------------|----------------|
E|----------------|----------------|----------------| 2---------------|

| | | | | | | |
E|----------------|----------------|
B|------0---------|------0---------|
G|----------5-----|----------4-----| (repeat this line 6x)
D|----------------|----------------|
A|----------------|----------------|
E|5---------------| 5---------------|

[Intro]
1x
[B:]
[Chorus]
(instead of the last four times you play:)
| | | | | | | | | | | | | | | |
E|----------------|----------------|----------------|----------------|
B|------5---------|------5---------|------7---------|------7---------|
G|----------5-----|----------5-----|----------5-----|----------5-----| (repeat)
D|--------------5-|--------------5-|-------------5--|-------------5--|
A|----------------|----------------|----------------|----------------|
E|5---------------| 5---------------|5---------------|5---------------|

[Instrumental]
| | | | | | | | | | | | | | | |
E|----------------|----------------|----------------|----------------|
B|------2-------7-|------4-------11|------11--------|--9-------9-----|
G|----------0-----|--0-------0-----|--0-------0---9=| 10--10--10--10--| (repeat 3x)
D|------------0---|----0-------0---|----0-------0---|------12------12|
A|----------------|----------------|----------------|----------------|
0---------------|----------------|----------------|----------------|

| | | | | | | | | | | |
E|----------------|----------------|----------------|
B|--9-------9-----|--12------12----|--12------12----|
10--10--10--10--|10--10--10--10--|10--10--10--10--|
E|------12------12|------12------12|------12------12|
B|----------------|----------------|----------------|
G|----------------|----------------|----------------|

| | | | | | | | | | | | | | | | | | | |
E|----------------|----------------|----------------|----------------|----------------|
B|------4---------|------4---------|------11--------|--9-------9-----|----7-----------|
G|--------0=2-0---|--------0=2-0---|--0-------0---9=| 10--10--10--10--|----7-----------|
D|1---------------| 1---------------|----0-------0---|------12------12|----7-----------|
A|----------------|----------------|----------------|----------------|----------------|
E|----------------|----------------|----------------|----------------| 0---------------|
Harm.
Appr.
Outros vídeos desta música
    14 exibições
      • ½ Tom
      • Am
      • Bbm
      • Bm
      • Cm
      • C#m
      • Dm
      • Ebm
      • Em
      • Fm
      • F#m
      • Gm
      • G#m
    • Adicionar à lista

    Afinação da cifra

    Afinador online

      0 comentários

      Ver todos os comentários

      Entre para o Cifra Club PRO

      Tenha acesso a benefícios exclusivos no App e no Site

      • Chega de anúncios

      • Badges exclusivas

      • Mais recursos no app do Afinador

      • Atendimento Prioritário

      • Aumente seu limite de lista

      • Ajude a produzir mais conteúdo

      Cifra Club Pro

      Aproveite o Cifra Club com benefícios exclusivos e sem anúncios
      Cifra Club Pro
      Aproveite o Cifra Club com benefícios exclusivos e sem anúncios
      Ops (: Contenido disponible sólo en portugués.
      OK