Cifra Club

Aprenda

Ordinary World

Duran Duran

Cifra: Principal (violão e guitarra)
tom: B
[Intro] B  F#m  D7M  A/C#  C6

E|-12-12-12-12\11-11-11-11\9-9-9-9\7-7-7----|
B|------------------------------------------|
G|-9--9--9---9\8--8--8---8\6-6-6-6\4-4-4----|
D|------------------------------------------|
A|------------------------------------------|
E|------------------------------------------|

E|-14-14-14-14\12-12-12-12\11---------------|
B|------------------------------------------|
G|-11-11-11-11\9--9--9---9\8----------------|
D|------------------------------------------|
A|------------------------------------------|
E|------------------------------------------|

E|-11-11-11\9-9-9-7----7---7---7---5---5---5|
B|-------------------5---5---5---5---5---5--|
G|------------------------------------------|
D|------------------------------------------|
A|------------------------------------------|
E|------------------------------------------|

[Primeira Parte]

 C#m                          E          F#
Came in from a rainy thursday on the avenue
C#m                                  E  F#
    Thought I heard you talking softly
C#m                            E           F#
I turned on the lights, the tv and the radio
C#m                                   E  F#
    Still Ican't escape the ghost of you
C#m7                           G#m          G#m9
What has happened to it all? Crazy, some'd say
  D#7                          E
Where is the life that I recognize?

Gone away

[Refrão]

B                            F#m
  But I won't cry for yesterday
                     D7M
There's an ordinary world
        A/C#       E
Somehow I have to find
B                          F#m
  And as I try to make my way
                 D7M          A/C#        E
To the ordinary world I will learn to survive

( C#m7  E  F#7 )

[Riff]

   C#m7          E                F#7
E|-7-----6-----4------------------2-2-2-2-2-|
B|-----5-----5---5-----5-----5-4--2-2-5-5-2-|
G|---4-----4-------4-----4--------3-3-3-3-3-|
D|-------------------6-----6------2-2-2-2-2-|
A|-4------------------------------4-4-4-4-4-|
E|--------------------------------2-2-2-2-2-|
                                  ↓ ↓ ↑ ↑ ↓

[Segunda Parte]

 C#m                          E              F#
Passion or coincidence once prompted you to say
C#m                               E  F#
    Pride will tear us both apart
           C#m
Well now pride's gone out the window cross the
 E             F#
Rooftops run away
C#m                              E   F#
    Left me in the vacuum of my heart
  C#m
What happening to me?
  G#m             G#m9
Crazy, some'd say
  D#7                           E
Where is my friend when I need you most?
Gone away

[Refrão]

B                            F#m
  But I won't cry for yesterday
                     D7M
There's an ordinary world
        A/C#       E
Somehow I have to find
B                          F#m
  And as I try to make my way
                 D7M          A/C#        E
To the ordinary world I will learn to survive

[Solo] B  F#m  D7M  A/C#  C6

E|-12-12-12-12\11-11-11-11\9-9-9-9\7-7-7----|
B|------------------------------------------|
G|-9--9--9---9\8--8--8---8\6-6-6-6\4-4-4----|
D|------------------------------------------|
A|------------------------------------------|
E|------------------------------------------|

E|-14-14-14-14\12-12-12-12\11---------------|
B|------------------------------------------|
G|-11-11-11-11\9--9--9---9\8----------------|
D|------------------------------------------|
A|------------------------------------------|
E|------------------------------------------|

E|-11-11-11\9-9-9-7----7---7---7---7---7---7|
B|-------------------5---5---5---5---5---5--|
G|------------------------------------------|
D|------------------------------------------|
A|------------------------------------------|
E|------------------------------------------|

E|-12-12-12-12\11-11-11-11\9-9-9-9\7-7-7----|
B|------------------------------------------|
G|-9--9--9---9\8--8--8---8\6-6-6-6\4-4-4----|
D|------------------------------------------|
A|------------------------------------------|
E|------------------------------------------|

E|-14-14-14-14\12-12-12-12\11---------------|
B|------------------------------------------|
G|-11-11-11-11\9--9--9---9\8----------------|
D|------------------------------------------|
A|------------------------------------------|
E|------------------------------------------|

E|-11-11-11\9-9-9-7----7---7---7---2---2---2|
B|-------------------5---5---5---5---5---5--|
G|------------------------------------------|
D|------------------------------------------|
A|------------------------------------------|
E|------------------------------------------|

[Ponte]

 C#m
Papers in the roadside
         E              F#
Tell of suffering and greed
 C#m                          E  F#
Feared today, forgot tomorrow
         C#m
Ooh, here    besides the news
         E            F#
Of holy war and holy need
C#m                             E    F#
Ours is just a little sorrowed talk

[Refrão]

B                            F#m
  But I won't cry for yesterday
                     D7M
There's an ordinary world
        A/C#       E
Somehow I have to find
B                          F#m
  And as I try to make my way
                 D7M          A/C#        E
To the ordinary world I will learn to survive

       B  F#m            D9 
Every wo______rld is my world
         A/C#        E
(I will learn to survive)
     B  F#m            D9 
Any wo______rld is my world
         A/C#        E
(I will learn to survive) 
       B  F#m            D9 
Every wo______rld is my world
         A/C#        E
(I will learn to survive)
     B  F#m            D9 
Any wo______rld is my world
         A/C#        E
(I will learn to survive) 
     B  F#m            D9 
Any wo______rld is my world
         A/C#        E
(I will learn to survive)
Composição de Nick Rthodes / Simon Le Bon / Warren Cuccurullo
225.304 exibições
    • ½ Tom
    • A
    • Bb
    • B
    • C
    • Db
    • D
    • Eb
    • E
    • F
    • F#
    • G
    • Ab
  • Adicionar à lista

    0 comentários

    Ver todos os comentários

    Conseguiu tocar?

    22 Tocaram 5 Ainda não

    Grave um vídeo tocando Ordinary World e nos envie!

    00:00 / 00:00
    Outros vídeos desta música
    Repetir Qualidade Automático
    Outros vídeos desta música
    00:00 / 00:00
    Automático

    Cifra Club Pro

    Aproveite o Cifra Club com benefícios exclusivos e sem anúncios
    Cifra Club Pro
    Aproveite o Cifra Club com benefícios exclusivos e sem anúncios
    OK