Cifra Club

Aprenda

Acurrucar

Ed Maverick

Cifra: Principal (violão e guitarra)
tom: Bb (forma dos acordes no tom de A) Capotraste na 1ª casa
[Intro]

E|---------------------------------------|
B|----0----0---0----0----0----0----0----0|
G|----0----0---0----0----0----0----0----0|
D|---------------------------------------|
A|---------------------------------------|
E|--3----3----3----3----2----2----2----2-|

E|------------------------------------------|
B|----0----0----0----0---0----0---0---------|
G|----0----0----0----0---0----0---0---------|
D|------------------------------------------|
A|------0h2-------0h2------0h2--------------|
E|--0--------0---------0--------0-----0-2/3-|

E|---------------------------------------|
B|----0----0---0----0----0----0----0----0|
G|----0----0---0----0----0----0----0----0|
D|---------------------------------------|
A|---------------------------------------|
E|--3----3----3----3----2----2----2----2-|

E|------------------------------------------|
B|----0----0----0----0---0----0---0---------|
G|----0----0----0----0---0----0---0---------|
D|------------------------------------------|
A|------0h2-------0h2------0h2--------------|
E|--0--------0---------0--------0-----0-2/3-|

[Primeira Parte]

G
¿Qué esperas de mí?
G/F#                    Em
Quiero ver qué piensas tú
G
Me dijiste ayer
G/F#               Em
"Wey cero romántico"
 G
Tienes que entender
 G/F#               Em
No soy un wey básico

[Segunda Parte]

C                         D
Aunque no te culpo hay veces en que
                     G
Ni siquiera yo me entiendo
 C                      D
Quiero que sigamos aturrándonos la vida
      G
De recuerdos

 C                            D      
Quiero que me digas que me quieres y 
                   G
Que me vas a extrañar
 C                       D              
Mames, no me mires a los ojos que 
                 G
Me vas a hacer llorar
C                        D                      
Dime que esta no será la última 
 G   G/F#  Em
Vez que te voy a abrazar
C                          D                     
Quisiera que todo fuera mentira 
                  G  G/F#
Y de chingazo despertar

[Refrão]

Em         D
Un día más
         C
Una vez más
         D                        G  G/F#
En tus brazos yo me quiero acurrucar

Em         D
Un día más
         C
Una vez más
         D                        G  G/F#
En tus brazos yo me quiero acurrucar

Em         D
Un día más
         C
Una vez más
         D                        G  G/F#
En tus brazos yo me quiero acurrucar
Composição de Ed Maverick
Colaboração e revisão:
21.948 exibições
    • ½ Tom
    • A
    • Bb
    • B
    • C
    • Db
    • D
    • Eb
    • E
    • F
    • F#
    • G
    • Ab
  • Adicionar à lista

    0 comentários

    Ver todos os comentários

    Conseguiu tocar?

    9 Tocaram 2 Ainda não

    Grave um vídeo tocando Acurrucar e nos envie!

    00:00 / 00:00
    Outros vídeos desta música
    Repetir Qualidade Automático
    Outros vídeos desta música
    00:00 / 00:00
    Automático

    Cifra Club Pro

    Aproveite o Cifra Club com benefícios exclusivos e sem anúncios
    Cifra Club Pro
    Aproveite o Cifra Club com benefícios exclusivos e sem anúncios
    OK