Cifra Club

Aprenda

All the clowns

Edguy

Cifra: Principal (violão e guitarra)
Tom: F
tune down 1/2 step!

guitar 1 intro

                                                                             
          2x
E--------------------------------------------------------------------------------------|
B--------------------------------------------------------------------------------------|
G---14-12-14-15---------------10-12-14-12-14-15-14-12-14--17-15-14-12--15-14-12-10-12--|
D---------------15-14-12---12----------------------------------------------------------|
A--------------------------------------------------------------------------------------|
E--------------------------------------------------------------------------------------|

guitar 1 after the intro

E--------------------------------------------------------------------------------------|
B--------------------------------------------------------------------------------------|
G--------------------------------------------------5-7-5-------------------------------|
D-------7-------5------7------8------5-7--------7--------8-----------------------------|
A--5-5-----5-5-----5-5---5-5----5-5--------5-5-----------------------------------------|
E--------------------------------------------------------------------------------------|
pm.

When you're walking down...

riff 1                                                                       
                2x
E--------------------------------------------------------------------------------------|
B--------------------------------------------------------------------------------------|
G-------7----------7-----------------7-------------------------------------------------|
D-------7----------7------5----------7-------5-7---------------------------------------|
A--5-5--5-----5-5--5----5-5--5--5-5--5---5-5-------------------------------------------|
E--------------------------------------------------------------------------------------|
pm.

E--------------------------------------------------------------------------------------|
B--------------------------------------------------------------------------------------|
G-------7----------7-----------------7-------------------------------------------------|
D-------7----------7------5----------7--------7-10-------------------------------------|
A--5-5--5-----5-5--5----5-5--5--5-5--5---5-5-------------------------------------------|
E--------------------------------------------------------------------------------------|
pm.

E--------------------------------------------------------------------------------------|
B--------------------------------------------------------------------------------------|
G-------3-------3------------------3---------------------------------------------------|
D-------3-------3---------2--------3----5-8-----------5--------5---------5-7-----------|
A--1-1--1--1-1--1----1-1--1---1-1--1------------------5--------5---5-7-8-----8-7-5-----|
E------------------------------------------------3-3--3---3-3--3-----------------------|
pm.

A fire of hope has turned...
E--------------------------------------------------------------------------------------|
B--------------------------------------------------------------------------------------|
G--3---------------------10-7-10-9---------10---------10-------------------------------|
D--3-------------5---------------------------------------------------------------------|
A--1-------------5------------------10-12---------12-----------------------------------|
E----------------3---------------------------------------------------------------------|

E--------------------------------------------------------------------------------------|
B--------------------------------------------------------------------------------------|
G--3------------------------2----------11-------11-12-----------11-12-11---------------|
D--3-------------5----------2------7-------9-9---------11-12-14----------14-12---------|
A--1-------------5----------0----------------------------------------------------------|
E----------------3---------------------------------------------------------------------|
pm.

chorus

Tell me why all the clowns have gone...

guitar 1

E----------------------5------------------------5--------------------------------------|
B----------------------5------------------------5--------------------------------------|
G-----7----------------6-----7------------------6--------------------------------7-7---|
D-----7------5-----7---------7-----5-----7----------------5-5---------4-4--------------|
A-----5------5-----7---------5-----5-----7---------2-2-2--------5-5-5------5-5-5-------|
E------------3-----5---------------3-----5---------------------------------------------|

E---------------------|
B---------------------|
G---------------------|
D---------------------|
A---4-4-4-7-4-7-4-----|
E---------------------|

E--------------------------------------0---0-------------------------------------------|
B----------------------------------------1-1-------------------------------------------|
G---------7--------2-----------7----5--0-0-0------7------------------------------------|
D--5------7--------2-----5-----7----5--2-2-2--5---7------------------------------------|
A--5------5--------0-----5-----5----3--3-3-3--5---5------------------------------------|
E--3---------------------3--------------------3----------------------------------------|

E--------------------------------------------------------------------------------------|
B--------------------------------------------------------------------------------------|
G-------4----------4-----------------------4---------------------4--------4----5---4---|
D-------4----------4------------2----------4----------0-2--------4--------4----5---5---|
A--2-2--2-----2-2--2-------2-2--2-----2-2--2-----2-2--------2-2--2---2-2--2----3---2---|
E--------------------------------------------------------------------------------------|

guitar 2: this is the all second guitar of all the clowns

guitar 2 intro
                                                                             
          2x
E--------------------------------------------------------------------------------------|
B--------------------------------------------------------------------------------------|
G---------------------7-9-10-9-10-12-10-9-10--15-14-10-9--12-10-9-7-9------------------|
D---7-5-7-8---------7------------------------------------------------------------------|
A-----------8-7-5----------------------------------------------------------------------|
E--------------------------------------------------------------------------------------|

guitar 2 after the intro

E--------------------------------------------------------------------------------------|
B--------------------------------------------------------------------------------------|
G--------------------------------------------------------------------------------------|
D-------7-------5------7------8------5-7--------7--7-8-7-5-----------------------------|
A--5-5-----5-5-----5-5---5-5----5-5--------5-5-----------------------------------------|
E--------------------------------------------------------------------------------------|

When you're walking down...
                                                                             
          2x
E--------------------------------------------------------------------------------------|
B--------------------------------------------------------------------------------------|
G-------7----------7-----------------7-------------------------------------------------|
D-------7----------7------5----------7-------------------------------------------------|
A--5-5--5-----5-5--5----5-5--5--5-5--5---5-5--5-8--------------------------------------|
E--------------------------------------------------------------------------------------|
pm.

E--------------------------------------------------------------------------------------|
B--------------------------------------------------------------------------------------|
G-------7----------7-----------------7-------------------------------------------------|
D-------7----------7------5----------7-------------------------------------------------|
A--5-5--5-----5-5--5----5-5--5--5-5--5---5-5--8-12-------------------------------------|
E--------------------------------------------------------------------------------------|
pm.

E--------------------------------------------------------------------------------------|
B--------------------------------------------------------------------------------------|
G-------3-------3------------------3---------------------------------------------------|
D-------3-------3---------2--------3----5-8-----------5--------5---------5-7-----------|
A--1-1--1--1-1--1----1-1--1---1-1--1------------------5--------5---5-7-8-----8-7-5-----|
E------------------------------------------------3-3--3---3-3--3-----------------------|
pm.

E--------------------------------------------------------------------------------------|
B--------------------------------------------------------------------------------------|
G--3-----------------------------------------------------------------------------------|
D--3-------------5--------------------3------3-----------------------------------------|
A--1-------------5----8-5-8-7-8--------------------------------------------------------|
E----------------3---------------3-5-----5---------------------------------------------|
pm.

E--------------------------------------------------------------------------------------|
B--------------------------------------------------------------------------------------|
G--3------------------------2----------7-------9full-7-----6-7-9-7-6-------------------|
D--3-------------5----------2------5-------7-7---------7-9-----------9-----------------|
A--1-------------5----------0----------------------------------------------------------|
E----------------3---------------------------------------------------------------------|

chorus

Tell me why all the clowns have gone...

guitar 2

E----------------------5------------------------5--------------------------------------|
B----------------------5------------------------5--------------------------------------|
G-----7----------------6-----7------------------6--------------------------------7-7---|
D-----7------5-----7---------7-----5-----7----------------4-4--------------------------|
A-----5------5-----7---------5-----5-----7---------2-2-2--------------5-5----5-5-5-----|
E------------3-----5---------------3-----5----------------------3-3-3------------------|

E---------------------|
B---------------------|
G---------------------|
D---------------------|
A---------------------|
E---5-5-5-9-5-9-5-----|

E--------------------------------------0---0-------------------------------------------|
B----------------------------------------1-1-------------------------------------------|
G---------7--------2-----------7----5--0-0-0------7------------------------------------|
D--5------7--------2-----5-----7----5--2-2-2--5---7------------------------------------|
A--5------5--------0-----5-----5----3--3-3-3--5---5------------------------------------|
E--3---------------------3--------------------3----------------------------------------|

E--------------------------------------------------------------------------------------|
B--------------------------------------------------------------------------------------|
G-------4----------4-----------------------4---------------------4--------4----5---4---|
D-------4----------4------------2----------4----------0-2--------4--------4----5---5---|
A--2-2--2-----2-2--2-------2-2--2-----2-2--2-----2-2--------2-2--2---2-2--2----3---2---|
E--------------------------------------------------------------------------------------|

guitar 1 and 2

the same: riff 1, chorus

solo 2 guitars in the same time:


[solo: Both / Jens]

guitar 1 solo

E--------------------------------------------------------------------------------------|
B-----------14full(15)----------------14full(15)---------14full(15)-13-12-13--13-12-10-|
G--12-14-16-----------16-14--12-14-16-----------16-14-12-------------------------------|
D--------------------------------------------------------------------------------------|
A--------------------------------------------------------------------------------------|
E--------------------------------------------------------------------------------------|

E--------------------------------------------------------------------------------------|
B--17-17full-15-17-17-20-15--17-17-15-17-18-20-18-18full-18-17-18----------------------|
G--------------------------------------------------------------------------------------|
D--------------------------------------------------------------------------------------|
A--------------------------------------------------------------------------------------|
E--------------------------------------------------------------------------------------|

E--15-17-15-17--13-15-13-15--12-13-12-13--10-12-10-12-10-------------------------------|
B--------------------------------------------------------------------------------------|
G--------------------------------------------------------------------------------------|
D--------------------------------------------------------------------------------------|
A--------------------------------------------------------------------------------------|
E--------------------------------------------------------------------------------------|

guitar 2 solo:

E--------------------------------------------------------------------------------------|
B--------------------------------------------------------------------------------------|
G----------12full---------------12full--------12full-10-9-10--10-9-7-------------------|
D--10-12-14------14-12--10-12-14------14-12-10-----------------------------------------|
A--------------------------------------------------------------------------------------|
E--------------------------------------------------------------------------------------|

E--------------------------------------------------------------------------------------|
B--------------------------------------------------------------------------------------|
G--14full-14full-12-14-17-12-14full-14full-12-14-15-17-15full-15-14-15-----------------|
D--------------------------------------------------------------------------------------|
A--------------------------------------------------------------------------------------|
E--------------------------------------------------------------------------------------|

E--------------------------------------------------------------------------------------|
B--------------------------------------------------------------------------------------|
G--17-19-17-19--15-17-15-17--14-15-14-15--12-14-12-14-14-------------------------------|
D--------------------------------------------------------------------------------------|
A--------------------------------------------------------------------------------------|
E--------------------------------------------------------------------------------------|

guitar in solo

riff 2
E--------------------------------------------------------------------------------------|
B--------------------------------------------------------------------------------------|
G--5-----2-------------7--------2----------------2-------------------------------------|
D--5-----2-----2-------7--------2-----3----5-----2-------------------------------------|
A--3-----0-----2-------5--------0-----3----5-----0-------------------------------------|
E--------------0----------------------1----3-------------------------------------------|

final solo

E--------------------------------------------------------------------------------------|
B--------------------------------------------------------------------------------------|
G--14-12-14-15-14-12-14--17-15-14-12--15-14-12-10-12----10-12-14-12-14-15-14-12-14-----|
D----------------------------------------------------12--------------------------------|
A--------------------------------------------------------------------------------------|
E--------------------------------------------------------------------------------------|

E--------------------------------------------------------------------------------------|
B--------------------------------------------------------------------------------------|
G--12-12-16-12--14-14-18-16-18---------------------------------------------------------|
D--------------------------------------------------------------------------------------|
A--------------------------------------------------------------------------------------|
E--------------------------------------------------------------------------------------|

final solo riff
E--------------------------------------------------------------------------------------|
B--------------------------------------------------------------------------------------|
G---7----5------------3----5----7--------7---------------------------------------------|
D---7----5----5-------3----5----7--------7----5--7-------------------------------------|
A---5----3----5-------1----3----5--------5----5--7---2-4-chorus------------------------|
E-------------3-------------------------------3--5-------------------------------------|

chorus

Tell me why all the clowns have gone...

guitar 1

E----------------------5------------------------5--------------------------------------|
B----------------------5------------------------5--------------------------------------|
G-----7----------------6-----7------------------6--------------------------------7-7---|
D-----7------5-----7---------7-----5-----7----------------5-5---------4-4--------------|
A-----5------5-----7---------5-----5-----7---------2-2-2--------5-5-5------5-5-5-------|
E------------3-----5---------------3-----5---------------------------------------------|

E---------------------|
B---------------------|
G---------------------|
D---------------------|
A---4-4-4-7-4-7-4-----|
E---------------------|

E--------------------------------------------------------------------------------------|
B--------------------------------------------------------------------------------------|
G---------7--------2-------------------------------------------------------------------|
D--5------7--------2-------------------------------------------------------------------|
A--5------5--------0-------------------------------------------------------------------|
E--3-----------------------------------------------------------------------------------|

chorus again

E----------------------5------------------------5--------------------------------------|
B----------------------5------------------------5--------------------------------------|
G-----7----------------6-----7------------------6--------------------------------7-7---|
D-----7------5-----7---------7-----5-----7----------------5-5---------4-4--------------|
A-----5------5-----7---------5-----5-----7---------2-2-2--------5-5-5------5-5-5-------|
E------------3-----5---------------3-----5---------------------------------------------|

E---------------------|
B---------------------|
G---------------------|
D---------------------|
A---4-4-4-7-4-7-4-----|
E---------------------|

E--------------------------------------------------------------------------------------|
B--------------------------------------------------------------------------------------|
G---------7--------2-----------7----5--------------------------------------------------|
D--5------7--------2-----5-----7----5--------------------------------------------------|
A--5------5--------0-----5-----5----3--------------------------------------------------|
E--3---------------------3-------------------------------------------------------------|

ohh ohh o wooo ohh:

Tell me why all the clowns have gone

E--------------------------------------------------------------------------------------|
B--------------------------------------------------------------------------------------|
G----------3--------5-------------3-----5---------------------------------------10---10|
D--10------3--------5-------3-----3-----5-----------10---10--------7---7---------------|
A--10------1--------3-------3-----1-----3-----7-7-7----7-----8-8-8---8----8-8-8----8---|
E--8------------------------1----------------------------------------------------------|

E--------------------------------------------------------------------------------------|
B--------------------------------------------------------------------------------------|
G--------------------------------------------------------------------------------------|
D--------------------------------------------------------------------------------------|
A---7-7-7-10-7-10----------------------------------------------------------------------|
E--------------------------------------------------------------------------------------|

E--------------------------------------------------------------------------------------|
B--------------------------------------------------------------------------------------|
G---3---------5------------------------------------------------------------------------|
D---3----3----5------------------------------------------------------------------------|
A---1----3----3------------------------------------------------------------------------|
E--------1-----------------------------------------------------------------------------|

end


chorus

Tell me why all the clowns have gone...

guitar 2

E----------------------5------------------------5--------------------------------------|
B----------------------5------------------------5--------------------------------------|
G-----7----------------6-----7------------------6--------------------------------------|
D-----7------5-----7---------7-----5-----7----------------4-4----------------------7-7-|
A-----5------5-----7---------5-----5-----7---------2-2-2--------------5-5----5-5-5-----|
E------------3-----5---------------3-----5----------------------3-3-3------------------|

E---------------------|
B---------------------|
G---------------------|
D---------------------|
A---------------------|
E---5-5-5-9-5-9-5-----|

E--------------------------------------------------------------------------------------|
B--------------------------------------------------------------------------------------|
G---------7--------2-------------------------------------------------------------------|
D--5------7--------2-------------------------------------------------------------------|
A--5------5--------0-------------------------------------------------------------------|
E--3-----------------------------------------------------------------------------------|

chorus again

E----------------------5------------------------5--------------------------------------|
B----------------------5------------------------5--------------------------------------|
G-----7----------------6-----7------------------6--------------------------------------|
D-----7------5-----7---------7-----5-----7----------------4-4----------------------7-7-|
A-----5------5-----7---------5-----5-----7---------2-2-2--------------5-5----5-5-5-----|
E------------3-----5---------------3-----5----------------------3-3-3------------------|

E---------------------|
B---------------------|
G---------------------|
D---------------------|
A---------------------|
E---5-5-5-9-5-9-5-----|

E--------------------------------------------------------------------------------------|
B--------------------------------------------------------------------------------------|
G---------7--------2-----------7----5--------------------------------------------------|
D--5------7--------2-----5-----7----5--------------------------------------------------|
A--5------5--------0-----5-----5----3--------------------------------------------------|
E--3---------------------3-------------------------------------------------------------|

ohh ohh o wooo ohh:

Tell me why all the clowns have gone

E--------------------------------------------------------------------------------------|
B--------------------------------------------------------------------------------------|
G----------3--------5-------------3-----5----------------------------------------------|
D--10------3--------5-------3-----3-----5-----------7----7---------3--3--------10---10-|
A--10------1--------3-------3-----1-----3-----5-5-5----5-----1-1-1---1----8-8-8----8---|
E--8------------------------1----------------------------------------------------------|

E--------------------------------------------------------------------------------------|
B--------------------------------------------------------------------------------------|
G--------------------------------------------------------------------------------------|
D--------------------------------------------------------------------------------------|
A--------------------------------------------------------------------------------------|
E--8-8-8-12-8-12-8---------------------------------------------------------------------|

E--------------------------------------------------------------------------------------|
B--------------------------------------------------------------------------------------|
G---3---------5------------------------------------------------------------------------|
D---3----3----5------------------------------------------------------------------------|
A---1----3----3------------------------------------------------------------------------|
E--------1-----------------------------------------------------------------------------|

end

=======================
=TABLATURE EXPLANATION=
=======================

A.H. = Artificial Harmonic

pm..| = Palm mute

h = hammer on

p = pull off

/ = slide up

\ = slide down

~ = Vibrato

b() = Bend

x\ = Pick Slide

--------
--------
---12--- = Tremolo pick
----/---
----/---
----/---

---.---
--12--- = Staccato
-------
-------
-------
Composição de Tobias Sammet
Colaboração e revisão:
  • Gustavo Matos
8.268 exibições
    • ½ Tom
    • A
    • Bb
    • B
    • C
    • Db
    • D
    • Eb
    • E
    • F
    • F#
    • G
    • Ab
  • Adicionar à lista

    0 comentários

    Mostrar mais comentários

    Conseguiu tocar?

    0 Tocaram 0 Ainda não

    Grave um vídeo tocando All the clowns e mande pra gente!

    00:00 / 00:00
    outros vídeos desta música
    repetir qualidade Automático
    Outros vídeos desta música
    00:00 / 00:00
    Automático

    Cifra Club Pro

    Aproveite o Cifra Club com benefícios exclusivos e sem anúncios
    Cifra Club Pro
    Aproveite o Cifra Club com benefícios exclusivos e sem anúncios
    OK