Cifra Club

Aprenda

Hallowed

Edguy

Cifra: Principal (violão e guitarra)
Tom: D
INTRO: after bass melody...
E|-------
B|------- (let the chords ring out
G|-7-----  listen to track for correct "p.m"
D|-7--7--  riff, it´s easy)
A|-5--7--
E|----5--

RIFF ON A: 
  p.m "allright..."
E|--------------------------------------------------
B|--------------------------------------------------
G|--------------------------------------------------  #2
D|-----2-3~-----2-3~-----2-3~-----2-3-5-2-3-0-------
A|-0-0------0-0------0-0------0-0-------------------
E|--------------------------------------------------

RIFF ON D:
  p.m
E|--------------------------------------------------
B|--------------------------------------------------
G|------------------------------------5-------------  #1
D|-----7-8~-----7-8~-----7-8~-----7-8---7-8-5-------
A|-5-5------5-5------5-5------5-5-------------------
E|--------------------------------------------------

RIFF ON A: 
  p.m
E|--------------------------------------------------
B|--------------------------------------------------
G|--------------------------------------------------  #1
D|-----2-3~-----2-3~-----2-3~-----2-3-5-2-3-0-------
A|-0-0------0-0------0-0------0-0-------------------
E|--------------------------------------------------

RIFF ON F:
  p.m
E|--------------------------------------------------
B|--------------------------------------------------
G|--------------------------------------------------  #1
D|--------------------------------------------------
A|-----2-3~-----2-3~-----2-3~-----2-3-5-2-3-0-------
E|-1-1------1-1------1-1------1-1-------------------

RIFF ON G:
  p.m
E|--------------------------------------------------
B|--------------------------------------------------
G|--------------------------------------------------  #1
D|------------------------------------2-------------
A|-----3-5~-----3-5~-----3-5~-----3-5---3-5-2-------
E|-3-3------3-3------3-3------3-3-------------------

RIFF ON A: 
  p.m
E|--------------------------------------------------
B|--------------------------------------------------
G|--------------------------------------------------  #2
D|-----2-3~-----2-3~-----2-3~-----2-3-5-2-3-0-------
A|-0-0------0-0------0-0------0-0-------------------
E|--------------------------------------------------

RIFF ON A: 
  p.m  "sacred, standing for the pride..."
E|--------------------------------------------------
B|--------------------------------------------------
G|--------------------------------------------------  #2
D|-----2-3~-----2-3~-----2-3~-----2-3-5-2-3-0-------
A|-0-0------0-0------0-0------0-0-------------------
E|--------------------------------------------------

RIFF ON F:
  p.m   ".......in my brain..."
E|--------------------------------------------------
B|--------------------------------------------------
G|--------------------------------------------------  #1
D|--------------------------------------------------
A|-----2-3~-----2-3~-----2-3~-----2-3-5-2-3-0-------
E|-1-1------1-1------1-1------1-1-------------------

RIFF ON G:
  p.m   "cousing you to fight..."
E|--------------------------------------------------
B|--------------------------------------------------
G|--------------------------------------------------  #1
D|------------------------------------2-------------
A|-----3-5~-----3-5~-----3-5~-----3-5---3-5-2-------
E|-3-3------3-3------3-3------3-3-------------------

RIFF ON A: 
  p.m  "enchained..."
E|--------------------------------------------------
B|--------------------------------------------------
G|--------------------------------------------------  #2
D|-----2-3~-----2-3~-----2-3~-----2-3-5-2-3-0-------
A|-0-0------0-0------0-0------0-0-------------------
E|-------------------------------------------------- 

RIFF ON F:
  p.m   "roots(?!) with no sence...."                         "you left the empire of freedom..."
E|----------------------------------------------------------------------------------------------
B|----------------------------------------------(before chorus)---------------------------------
G|---------------------------------------------------------------------------------------------- #1
D|----------------------------------------------------------------------------------------3-(3)-
A|----2-3~-----2-3~-----2-3~-----2-3-5-2-3-0----5-5-5--5-5-5--5-5-5--5-5-5--5-5-5--5-5-5--3-(3)-
E:1-1------1-1------1-1------1-1----------------3-3-3--3-3-3--3-3-3--3-3-3--3-3-3--3-3-3--1--1*-
                                                                                            
CHORUS:
  p.m "hallowed be my name..." ()=Guitar 2 let the chords ring.
E|--------------------------------------------------------------    ----
B|--------------------------------------------------------------    ----
G:(5)--------------(5)-----(5)------(5)------------------------- #2 ---- Let ring after second time
D:(5)-(5)-(7)-(3)--(5)-(7)-(5)-(5)--(5)-(3)--p.m all the way----    -7--
A|-3--(5)-(7)-(3)---3--(7)--3--(5)---3--(3)------2-3-5-3-2-0----    -7--
E|-----3---5---1--------5-------3--------1---3-5----------------    -5--

E|-------
B|------- (let the chords ring out
G|-7-----  listen to track for correct "p.m"
D|-7--7--  riff, it´s easy)
A|-5--7--
E|----5--

RIFF ON A: 
  p.m  "hatered..."
E|--------------------------------------------------
B|--------------------------------------------------
G|--------------------------------------------------  #2
D|-----2-3~-----2-3~-----2-3~-----2-3-5-2-3-0-------
A|-0-0------0-0------0-0------0-0-------------------
E|--------------------------------------------------

RIFF ON F:
  p.m   "thoughs who..."
E|--------------------------------------------------
B|--------------------------------------------------
G|--------------------------------------------------  #1
D|--------------------------------------------------
A|-----2-3~-----2-3~-----2-3~-----2-3-5-2-3-0-------
E|-1-1------1-1------1-1------1-1-------------------

RIFF ON G:
  p.m   "just die by your sword..."
E|--------------------------------------------------
B|--------------------------------------------------
G|--------------------------------------------------  #1
D|------------------------------------2-------------
A|-----3-5~-----3-5~-----3-5~-----3-5---3-5-2-------
E|-3-3------3-3------3-3------3-3-------------------

RIFF ON A: 
  p.m  "sacred, hallowed be my name..."
E|--------------------------------------------------
B|--------------------------------------------------
G|--------------------------------------------------  #2
D|-----2-3~-----2-3~-----2-3~-----2-3-5-2-3-0-------
A|-0-0------0-0------0-0------0-0-------------------
E|--------------------------------------------------

RIFF ON F:
  p.m                               "this glourius crusade..."    "you left the empire of freedom..."
E|-------------------------------------------------------------------------------------------------
B|-----------------------------------------------(before chorus)-----------------------------------
G|-------------------------------------------------------------------------------------------------  #1
D|-----------------------------------------------------------------------------------------3-(3)---
A|-----2-3~-----2-3~-----2-3~-----2-3-5-2-3-0----5-5-5--5-5-5--5-5-5--5-5-5--5-5-5--5-5-5--3-(3)---
E|-1-1------1-1------1-1------1-1----------------3-3-3--3-3-3--3-3-3--3-3-3--3-3-3--3-3-3--1--1*---
                                                                                            
CHORUS:
  p.m "hallowed be my name..." ()=Guitar 2 let the chords ring.
E|--------------------------------------------------------------        ----
B|--------------------------------------------------------------        ----
G:(5)--------------(5)-----(5)------(5)-------------------------  #2 ----Let ring after second time
D:(5)-(5)-(7)-(3)--(5)-(7)-(5)-(5)--(5)-(3)--p.m all the way----        -7--
A|-3--(5)-(7)-(3)---3--(7)--3--(5)---3--(3)------2-3-5-3-2-0----        -7--
E|-----3---5---1--------5-------3--------1---3-5----------------        -5--

RIFF AFTER 2:nd CHORUS:
  p.m
E|-----------------------------------------
B|-----------------------------------------
G|-----------------------------------------  #2
D|------------------2-----5-5-4-4-5/4------
A|-10/9-7--9/7-5-/7-2--3--3-3-2-2-3/2-3----
E|--8/7-5*-7/5-3*/5-0*-1*-------------5*---

CHORDS ON MELODIC HARMONY:
E|---------------------------------------------
B|---------------------------------------------
G|-7-7-3-5--7-7-3-5--12-12-8-10--12-12-8-10---- The melody shouldn´t be a problem! Just listen.
D|-7-7-3-5--7-7-3-5--12-12-8-10--12-12-8-10----
A|-5-5-1-3--5-5-1-3--10-10-6--8--10-10-6--8----
E|---------------------------------------------

BEFORE "REAL" SOLO:
  p.m (listen where the ~ and p.m should be)
E|------------------------------------
B|------------------------------------
G|------------------------------------  #4
D|-7-7-8-7-5-7-8-7-7-8-7-5-10-8-------
A|-7-------------7--------------------
E|-5-------------5--------------------

CHORDS ON SOLO:                                                 "you left the empire of freedom..."
E|----------------------------------------------------------------------
B|----------------------------------------------------------------------
G|---------7-7----------------------------------------------------------  
D:7-7-7-7--7-7--7-7-----------------------------------------------3-(3)-    
A:7-7-7-7--5-5--7-7--3--5-5-5--5-5-5--5-5-5--5-5-5--5-5-5--5-5-5--3-(3)-    
E:5-5-5-5-------5-5--1*-3-3-3--3-3-3--3-3-3--3-3-3--3-3-3--3-3-3--1--1*-
                                                                 
CHORUS:
  p.m "hallowed be my name..." ()=Guitar 2 let the chords ring.
E|-----------------------------------------------------------------     ----
B|-----------------------------------------------------------------     ----
G:(5)--------------(5)-----(5)------(5)----------------------------  #2 ---- Let ring after second time
D:(5)-(5)-(7)-(3)--(5)-(7)-(5)-(5)--(5)-(3)--p.m all the way-------     -7--
A|-3--(5)-(7)-(3)---3--(7)--3--(5)---3--(3)------2-3-5-3-2-0-------     -7--
E|-----3---5---1--------5-------3--------1---3-5-------------------     -5--

LAST RIFF:
  p.m (listen where the ~ and p.m should be)
E|------------------------------------
B|------------------------------------
G|------------------------------------  
D|-7-7-8-7-5-7-8----------------------  The End
A|-7-------------7-7-7--7-7-----------
E|-5-------------5-5-5--5-5-----------

Tablature explanation:

~   = Artificial Harmonic
p.m = Palm Mute
*   = Continue picking (means that you have to continue picking only that tone, 
      not the whole chord...)
/   = Slide to...
Composição de Tobias Sammet
Colaboração e revisão:
  • Taino Vieira
1.537 exibições
    • ½ Tom
    • A
    • Bb
    • B
    • C
    • Db
    • D
    • Eb
    • E
    • F
    • F#
    • G
    • Ab
  • Adicionar à lista

    0 comentários

    Mostrar mais comentários

    Conseguiu tocar?

    0 Tocaram 0 Ainda não

    Grave um vídeo tocando Hallowed e mande pra gente!

    00:00 / 00:00
    outros vídeos desta música
    repetir qualidade Automático
    Outros vídeos desta música
    00:00 / 00:00
    Automático

    Cifra Club Pro

    Aproveite o Cifra Club com benefícios exclusivos e sem anúncios
    Cifra Club Pro
    Aproveite o Cifra Club com benefícios exclusivos e sem anúncios
    OK