Cifra Club

Aprenda

Here I Am

Edguy

Cifra: Principal (violão e guitarra)
tom: D
 
Tune: E A D G 
 
Intro (many times). 
 
|-----------------------------------------------| 
|-----------------------------------------------| 
|--33333333333333333333333333333333333333333333-| 
|-----------------------------------------------| 
                                                                               
Vocals. 
 
|---------------------------------------------------------------------------| 
|---------------------------------------------------------------------------| 
|-3333333333333333333333333333333333333333333333333333333333333333333333333-| 
|---------------------------------------------------------------------------| 
                                                                               
|--------------------------------------------------------------------------| 
|--------------------------------------------------------------------------| 
|--------------------------------------------------------------------------| 
|-111111111111111111111111111111111111111111133333333333333333333333333333-| 
                                                                               
|----------------------------------------| 
|----------------------------------------| 
|-1-1-1-1-1-1-1-1-1-1-1-1---1-3-3-3-3-3--| 
|----------------------------------------| 
                                                                               
Chorus. 
 
|---------------------------------------------------------------------------| 
|---------------------------------------------------------------------------| 
|-------------------------3-3-3-3-3-3-3-3-3-3-3-5-5-5-5-5-5-5-5-5-5-5-1-1-1-| 
|-1-1-1-1-1-1-1-1-1-1-1-1---------------------------------------------------| 
                                                                               
|-----------------------------------------------------------------------------| 
|-----------------------------------------------------------------------------| 
|-1-1-1-1-1-1-3-3---------------------3-3-3-3-3-3-3-3-3-3-1-1-1-1-1-1-1-3-3-3-| 
|-----------------1-1-1-1-1-1-1-1-1-1-----------------------------------------| 
                                                                               
|-------------------------------| 
|-------------------------------| 
|-3-3-3-------------------------| 
|-------1-1-1-1-1-1-1-1-1-1-1-1-| 
                                                                               
Repeat Vocals and Chorus. 
 
Solo (same as vocals). 
 
Repeat Chorus and then: 
 
Chorus 2. 
 
|---------------------------------------------------------------------------| 
|---------------------------------------------------------------------------| 
|-------------------------5-5-5-5-5-5-5-5-5-5-5-7-7-7-7-7-7-7-7-7-7-7-3-3-3-| 
|-3-3-3-3-3-3-3-3-3-3-3-3---------------------------------------------------| 
                                                                               
|-----------------------------------------------------------------------------| 
|-----------------------------------------------------------------------------| 
|-3-3-3-3-3-3-5-5---------------------5-5-5-5-5-5-5-5-5-5-3-3-3-3-3-3-3-5-5-5-| 
|-----------------3-3-3-3-3-3-3-3-3-3-----------------------------------------| 
                                                                               
|-------------------------------| 
|-------------------------------| 
|-5-5-5-------------------------| 
|-------3-3-3-3-3-3-3-3-3-3-3-3-| 
 
End.
Composição de Tobias Sammet
Colaboração e revisão:
  • Eliakin sá
911 exibições
    • ½ Tom
    • A
    • Bb
    • B
    • C
    • Db
    • D
    • Eb
    • E
    • F
    • F#
    • G
    • Ab
  • Adicionar à lista

    0 comentários

    Ver todos os comentários

    Conseguiu tocar?

    0 Tocaram 0 Ainda não

    Grave um vídeo tocando Here I Am e nos envie!

    00:00 / 00:00
    outros vídeos desta música
    repetir qualidade Automático
    Outros vídeos desta música
    00:00 / 00:00
    Automático

    Cifra Club Pro

    Aproveite o Cifra Club com benefícios exclusivos e sem anúncios
    Cifra Club Pro
    Aproveite o Cifra Club com benefícios exclusivos e sem anúncios
    OK