Cifra Club

Aprenda

Painting on the Wall

Edguy

Cifra: Principal (violão e guitarra)
Tom: C
NORMAL TUNING

  INTRO
e|----------------------------------------------------------------------------|
B|----------------------------------------------------------------------------|
G|-4------------5---------------------4------------5--------------------------|
D|-4------2-----5----5----------------4------2-----5----5-----------------5\--|
A|-2------2-----3----5----------------2------2-----3----5-------5-5-4-4---5\--|
E|--------0----------3-----------------------0----------3-------3-3-2-2-0-3\--|

 
  VERSE 1 
  BASS PLAYS  E C E C
 
  
  BRIDGE
e|--------------------------------------------------------------------|
B|--------------------------------------------------------------------|
G|--------5--4------7----5--4-----7---7-9---9-11---11-12---12-11---9--|
D|-7-7-7--5--5--3/5---5--5--5-------0-----0------0-------0-------0----|
A|-5-5-5--------------------------------------------------------------|
E|--------------------------------------------------------------------|

e|------------------------------------------|
B|------------------------------------------|
G|---------------5-5-5-5-5-5-5-5-7-7-7-7-7--|
D|-2-------------5-5-5-5-5-5-5-5-7-7-7-7-7--|
A|-2-------------3-3-3-3-3-3-3-3-5-5-5-5-5--|
E|-0----------------------------------------|


  CHORUS
e|------------------------------------------------------------------------------------|
B|------------------------------------------------------------------------------------|
G|-4------------5-----------------------4------------5----7--------7-7-7--------------|
D|-4------2-----5----5-----------5--7---4------2-----5----7--------7-7-7-------7-7-7--|
A|-2------2-----3----5-----------5--7---2------2-----3----5--------5-5-5-------5-5-5--|
E|--------0----------3-----------3--5----------0--------------------------------------|

e|-------------------------------------------------------------------------|
B|-------------------------------------------------------------------------|
G|-5--4----5--4-----7---7-9---9-11---11-12---12-11---9---4---5---------9\--|
D|-5--5----5--5-------0-----0------0-------0-------0-----4---5---5-7-7-9\--|
A|-------------------------------------------------------2---3---5-5-5-7\--|
E|-------------------------------------------------------------------------|


  VERSE 2 
e|---------------------------------------------------------|
B|---------------------------------------------------------|
G|---------------------------------------------------------|
D|-2-2--2-2-2-2-2-2-2--2-2-------2-2--2-2-------2-2--5-4\--|
A|-2-2--2-2-------2-2--2-2-------3-3--3-3-3-3-3-3-3--5-5\--|
E|-0-0--0-0-------0-0--0-0-0-0-0---------------------------|
                                 ???????????????????????

e|---------------------------------------------------------|
B|---------------------------------------------------------|
G|---------------------------------------------------------|
D|-2-2--2-2-2-2-2-2-2--2-2-------2-2--2-2-------2-3-3------|
A|-2-2--2-2-------2-2--2-2-------3-3--3-3-3-3-3-3-3-3------|
E|-0-0--0-0-------0-0--0-0-0-0-0---------------------------|
                                 ??????????????????????
 
  BRIDGE
  
  CHORUS 2
e|------------------------------------------------------------------------------------|
B|------------------------------------------------------------------------------------|
G|-4------------5-----------------------4------------5----7--------7-7-7--------------|
D|-4------2-----5----5-----------5--7---4------2-----5----7--------7-7-7-------7-7-7--|
A|-2------2-----3----5-----------5--7---2------2-----3----5--------5-5-5-------5-5-5--|
E|--------0----------3-----------3--5----------0--------------------------------------|

e|----------------------------------------------------------------------------------------|
B|----------------------------------------------------------------------------------------|
G|-5--4----5--4-----7---7-9---9-11---11-12---12-11---9---4---5---7---9\-------------------|
D|-5--5----5--5-------0-----0------0-------0-------0-----4---5---7---9\--2-2-2-2-2-2-2-2--|
A|-------------------------------------------------------2---3---5---7\--2-2-2-2-2-2-2-2--|
E|-----------------------------------------------------------------------0-0-0-0-0-0-0-0--|

  
  SOLO 
e|-------------------------------------------------------------------------------------------|
B|-------------------------------------------------------------------------------------------|
G|--------------7-----------------------------------9---7--9----9\7-7---10b-8------8/10-12b--|
D|-5-7/9-9--9-----9------7-9--7----7/9-7--------7/9---9--------------------------7-----------|
A|--------------------10-----------------10-7------------------------------------------------|
E|-------------------------------------------------------------------------------------------|


  SOLO RHYTHM 
e|--------------------------------------------------------------------|
B|--------------------------------------------------------------------|
G|-5------------------------------5-----------------------------------|
D|-5---------------7--------------5-----------------7--5-----5-5-5-5--|
A|-3---------------7--------------3-----------------5--5-----5-5-5-5--|
E|-----------------5--------------------------------5--3-----3-3-3-3--|


  AFTER THE SOLO
e|---------------------------------------------------------------------------------------|
B|---------------------------------------------------------------------------------------|
G|-5-0-0-2/4--5-----4-0-0-2/4--5-----2-0-0-2/4--5----------------2-0-0-2/4--5------------|
D|---------------2----------------2----------------2-br...---------------------2--5-5-5--|
A|--------------------------------------------------------------------------------5-5-5--|
E|--------------------------------------------------------------------------------3-3-3--|
   Look at the  picture...

  CHORUS
Composição de Tobias Sammet
Colaboração e revisão:
  • Vinicius Amaral
3.767 exibições
    • ½ Tom
    • A
    • Bb
    • B
    • C
    • Db
    • D
    • Eb
    • E
    • F
    • F#
    • G
    • Ab
  • Adicionar à lista

    0 comentários

    Mostrar mais comentários

    Conseguiu tocar?

    0 Tocaram 0 Ainda não

    Grave um vídeo tocando Painting on the Wall e mande pra gente!

    00:00 / 00:00
    outros vídeos desta música
    repetir qualidade Automático
    Outros vídeos desta música
    00:00 / 00:00
    Automático

    Cifra Club Pro

    Aproveite o Cifra Club com benefícios exclusivos e sem anúncios
    Cifra Club Pro
    Aproveite o Cifra Club com benefícios exclusivos e sem anúncios
    OK