Cifra Club

Someone Says

Editors

Tab de baixo
Selo Cifra Club: esta cifra foi revisada para atender aos critérios oficiais da nossa Equipe de Qualidade.
Intro (Guitar twice)

G|----------------------------------|
D|----------------------------------| X4
A|-9-9-9-9-6-6-/11\-----------------|
E|------------------4-4-4-4-4-4-4-4-|

Verse
G|----------------------------------|
D|----------------------------------| X11
A|-9-9-9-9-6-6-/11\-----------------|
E|------------------4-4-4-4-4-4-4-4-|

G|------------------------------|
D|------------------------------| 
A|-9-9-9-9-6-6-/11\-------------|
E|------------------4-4-4-4-4-4-|

Chorus
G|-----------------------------------------------------------------|
D|-----------------------------------------------------------------| X4
A|-----------------------------------------------------------------| 
E|-4-4-4-4-4-4-4-4-4-4-4-4-7-7-7-7-9-9-9-9-9-9-9-9-9-9-9-9-7-7-7-7-|

Verse
G|----------------------------------|
D|----------------------------------| X7
A|-9-9-9-9-6-6-/11\-----------------|
E|------------------4-4-4-4-4-4-4-4-|

G|------------------------------|
D|------------------------------| 
A|-9-9-9-9-6-6-/11\-------------|
E|------------------4-4-4-4-4-4-|

Chorus
G|-----------------------------------------------------------------|
D|-----------------------------------------------------------------| X4
A|-----------------------------------------------------------------| 
E|-4-4-4-4-4-4-4-4-4-4-4-4-7-7-7-7-9-9-9-9-9-9-9-9-9-9-9-9-7-7-7-7-|

Rest

Chorus
G|-----------------------------------------------------------------|
D|-----------------------------------------------------------------| X4
A|-----------------------------------------------------------------| 
E|-4-4-4-4-4-4-4-4-4-4-4-4-7-7-7-7-9-9-9-9-9-9-9-9-9-9-9-9-7-7-7-7-|

Outro
G|----------------------------------|
D|----------------------------------| X8
A|-9-9-9-9-6-6-/11\-----------------|
E|------------------4-4-4-4-4-4-4-4-|


That’s what I think it goes like
Please rate it and email me if you have any problems, 
*

Adam Vaughan
Outros vídeos desta música
    18 exibições

    Afinação da cifra

    Afinador online

    0 comentários

    Ver todos os comentários

    Conseguiu tocar?

    0Tocaram0Ainda não

    Grave um vídeo tocando Someone Says e nos envie!

    Toque também

    1. Imagem do artista InterpolEvil Interpol
    2. Imagem do artista The NationalRains Of Castamere The National
    3. Imagem do artista The MaccabeesToothpaste Kisses The Maccabees
    4. Imagem do artista White LiesFarewell To The Fairground White Lies

    Entre para o Cifra Club PRO

    Tenha acesso a benefícios exclusivos no App e no Site

    • Chega de anúncios

    • Badges exclusivas

    • Mais recursos no app do Afinador

    • Atendimento Prioritário

    • Aumente seu limite de lista

    • Ajude a produzir mais conteúdo

    Cifra Club Pro

    Aproveite o Cifra Club com benefícios exclusivos e sem anúncios
    Cifra Club Pro
    Aproveite o Cifra Club com benefícios exclusivos e sem anúncios
    Ops (: Contenido disponible sólo en portugués.
    OK