Cifra Club

É Amor Demais

Edson e Hudson

Cifra: Principal (violão e guitarra)
tom: E
[Intro] C#m  D  C#m  D  E4  E

E|----9-10-12-12----14-------9---9-10-12-16-17-12-9-12-10-9-------------|
B|---------------------10-12-------------------------------12-10-9------|
G|----------------------------------------------------------------11-9--|
D|----------------------------------------------------------------------|
A|----------------------------------------------------------------------|
E|----------------------------------------------------------------------|

            A            F#m
O que você tem? Diz pra mim
       D                   E4           E
Posso ver nos teus olhos, vem, diz pra mim
       A         F#m
O que foi, tô aqui
      D                   E4       E
Faço tudo pra te ver novamente sorrir
       C#m               F#m
Tô cansado de te ver sofrer
        D                     E
Por alguém que não soube te amar
       C#m             F#m
Vendo tudo isso acontecer
       D                E4  E
É o momento de me declarar

[Refrão]

          A                E
É amor demais, é coisa de Deus
      D                   E4         E
Verdadeiro e profundo são os sonhos meus
    A          C#m
É amor sem maldade
      D                     E4      E
Sentimento nasceu, da mais pura amizade
    D                  A
Desculpa, não quero te assustar
         Bm      C#m       D         E         A
Mas se quer um amor de verdade tô aqui pra te dar

[Solo] C#m  D  E  F#m  C#m  D

E|-----------------------------------------------------------------|
B|----2-3/5-5-----2--3/-5-3-2-0--2h3-2-0----2----------------------|
G|--------------------------------------------2----2-4-2-4---------|
D|-2-----------2-----------------------------------------4-2-4-----|
A|-----------------------------------------------------------------|
E|-----------------------------------------------------------------|

E|--------------------------------7-----12-11~-----|
B|---2-3/5-7-5--12b14-10-12------------------------|
G|----------------------------11-------------------|
D|-4-----------------------------------------------|
A|-------------------------------------------------|
E|-------------------------------------------------|

       D#m               G#m
Tô cansado de te ver sofrer
        C#m                   F#
Por alguém que não soube te amar
       D#m             G#m
Vendo tudo isso acontecer
       E                F#4  F#
É o momento de me declarar

          B                F#
É amor demais, é coisa de Deus
      E                   F#4        F#
Verdadeiro e profundo são os sonhos meus
    B          D#m
É amor sem maldade
      E                     F#4     F#
Sentimento nasceu, da mais pura amizade
    E                  B
Desculpa, não quero te assustar
         C#m     D#m       E         F#        B
Mas se quer um amor de verdade tô aqui pra te dar

          B                F#
É amor demais, é coisa de Deus
      E                   F#4        F#
Verdadeiro e profundo são os sonhos meus
    B          D#m
É amor sem maldade
      E                     F#4     F#
Sentimento nasceu, da mais pura amizade
    E                  B
Desculpa, não quero te assustar
         C#m     D#m       E         F#        B
Mas se quer um amor de verdade tô aqui pra te dar
00:00 / 00:00
Outros vídeos desta música
Repetir
Outros vídeos desta música
Composição de Edson / Henrique Marx / Renato
473.217 exibições
  • Simplificar cifra
    • ½ Tom
    • A
    • Bb
    • B
    • C
    • Db
    • D
    • Eb
    • E
    • F
    • F#
    • G
    • Ab
  • Adicionar à lista

    0 comentários

    Ver todos os comentários

    Entre para oCifra Club PRO

    Tenha acesso a benefícios exclusivos no App e no Site

    • Chega de anúncios

    • Prioridade de compra em lançamentos

    • Mais recursos no app do Afinador

    • Atendimento Prioritário

    • Descontos nos produtos Cifra Club

    • Ajude a produzir mais conteúdo

    00:00 / 00:00

    Cifra Club Pro

    Aproveite o Cifra Club com benefícios exclusivos e sem anúncios
    Cifra Club Pro
    Aproveite o Cifra Club com benefícios exclusivos e sem anúncios
    OK