Cifra Club

Esqueça Que Eu Te Amo

Edson e Hudson

Cifra: Principal (violão e guitarra)
tom: G
[Intro] G  C  G

[Riff]

E|------------------------------------------|
B|------------------------------------------|
G|------------------------------------------|
D|------------------------------------------|
A|--3p2-0-----------------------------------|
E|---------3--------------------------------|

[Refrão]

                  Am7
Esqueça que eu te amo
                 D
Que eu vou me virando
           G   C  G
Segue sua vida
                  Am7
Vai ser melhor assim
                   D
Se não está mais afim
                G
Não vejo outra saída

[Primeira Parte]

     Am                 Am/G          D/F#
É difícil ouvir você dizer que foi engano
         G                   G/B              C   C/B
Que não sente mais nada por mim, tem outros planos
      Am                         Am/G       D/F#
Quem sabe com o tempo eu me acostumo ficar sem você
        C
Mas eu sei
      G            D
Vai doer.... vai doer

[Refrão]

                  Am7
Esqueça que eu te amo
                 D
Que eu vou me virando
           G   C  G
Segue sua vida
                  Am7
Vai ser melhor assim
                   D
Se não está mais afim
                G
Não vejo outra saída

[Segunda Parte]

      Am                     Am/G                   D/F#
Eu te amo tanto e quando a gente ama só quer ver o bem
      G
Você vai embora
               G/B
Eu vou ficar chorando
          C         C/B
Mas o que é que tem
     Am                         Am/G
Se é isso o que o seu coração quer
                D/F#    
o que é que eu vou fazer
        C
Mas eu sei
      G            E
Vai doer.... vai doer

[Solo] Bm  Bm/A  E  A  A/C#

E|------------------------------------------|
B|---3h5-3-2-2h3-3---3h5-3-2-2h3-3----------|
G|-1---------------2------------------------|
D|------------------------------------------|
A|------------------------------------------|
E|------------------------------------------|

E|------------------------------------------|
B|-2h3-3-3-3-2h3-2------------5-7---5--7-5-7|
G|----------------------2-4/6-----6---------|
D|------------------2-4---------------------|
A|------------------------------------------|
E|------------------------------------------|

E|------------------------------------------|
B|---3h5-3-2-2h3-3---3h5-3-2-2h3-3----------|
G|-1---------------2------------------------|
D|------------------------------------------|
A|------------------------------------------|
E|------------------------------------------|

E|------------------------------------------|
B|-2-----2h3-2------------------------------|
G|---4-2-------4-2--------------------------|
D|------------------------------------------|
A|------------------------------------------|
E|------------------------------------------|

[Terceira Parte]

      Bm                    Bm/A              E
Eu te amo tanto e quando a gente ama só quer ver o bem
      A
Você vai embora
               A/C#
Eu vou ficar chorando
          D
Mas o que é que tem
     Bm                    Bm/A
Se é isso o que o seu coração quer
                E
o que é que eu vou fazer
        D
Mas eu sei
      A            E
Vai doer.... vai doer

[Refrão]

                  Bm
Esqueça que eu te amo
    Bm/A         E
Que eu vou me virando
           A
Segue sua vida
                  Bm
Vai ser melhor assim
    Bm/A           E
Se não está mais afim
                A
Não vejo outra saída

                  Bm
Esqueça que eu te amo
    Bm/A         E
Que eu vou me virando
           A
Segue sua vida
                  Bm
Vai ser melhor assim
    Bm/A           E
Se não está mais afim
                A    E  A
Não vejo outra saída
00:00 / 00:00
Outros vídeos desta música
Repetir
Outros vídeos desta música
Compositor não encontrado.
233.289 exibições
    • ½ Tom
    • A
    • Bb
    • B
    • C
    • Db
    • D
    • Eb
    • E
    • F
    • F#
    • G
    • Ab
  • Adicionar à lista

    0 comentários

    Ver todos os comentários

    Entre para oCifra Club PRO

    Tenha acesso a benefícios exclusivos no App e no Site

    • Chega de anúncios

    • Prioridade de compra em lançamentos

    • Mais recursos no app do Afinador

    • Atendimento Prioritário

    • Descontos nos produtos Cifra Club

    • Ajude a produzir mais conteúdo

    00:00 / 00:00

    Cifra Club Pro

    Aproveite o Cifra Club com benefícios exclusivos e sem anúncios
    Cifra Club Pro
    Aproveite o Cifra Club com benefícios exclusivos e sem anúncios
    OK