Cifra Club

Esqueça que eu te amo

Edson e Hudson

Cifra: Principal
exibições 192.700
Tom: G
(Edson e Flavinho)


Intro: G C G

                  Am
Esqueça que eu te amo
                 D/C
Que eu vou me virando
          G     C  G  
Segue sua vida
                 Am
Vai ser melhor assim
                  D/C
Se não está mais afim
                 G
Não vejo outra saída

    Am                  Am/G              D/F# 
É difícil ouvir você dizer que foi engano
        G                    Bm               C     C/B
Que não sente mais nada por mim, tem outros planos
     Am                     Am/G                D/F#
Quem sabe com o tempo eu me acostumo ficar sem você
        C
Mas eu sei
      G            D
Vai doer.... Vai doer....

                  Am
Esqueça que eu te amo
                 D/C
Que eu vou me virando
          G     C  G  
Segue sua vida
                 Am
Vai ser melhor assim
                  D/C
Se não está mais afim
                 G
Não vejo outra saída

      Am                  Am/G                    D/F#
Eu te amo tanto e quando a gente ama só quer ver o bem
     G
Você vai embora 
              Bm
Eu vou ficar chorando 
          C        C/B  
Mas o que é que tem
     Am                 Am/G
Se é isso o que o seu coração quer, 
               D/F#    D
o que é que eu vou fazer
        C
Mas eu sei
      G            E 
Vai doer.... Vai doer....

Solo... Base do Solo: (Bm  E  A) 
Solo tirado do DVD:
e|-------------------------------------------------------------------------------------|
B|----3h5-3-2-2h3-3-------3h5-3-2-2h3-3----2h3-3-3--3-2h3-2-------------5-7---5--7-5-7-|
G|--2-------------------2-----------------------------------------2-4/7-----6----------|
D|------------------------------------------------------------2-4----------------------|
A|-------------------------------------------------------------------------------------|
E|-------------------------------------------------------------------------------------|

e|-------------------------------------------------------------|
B|----3h5-3-2-2h3-3-------3h5-3-2-2h3-3----2-----2h3~--2-------|
G|--2-------------------2--------------------4-2----------4--2-|
D|-------------------------------------------------------------|
A|-------------------------------------------------------------|
E|-------------------------------------------------------------|

      Bm                                     E
Eu te amo tanto e quando a gente ama só quer ver o bem
     A
Você vai embora 
                 C#m
Eu vou ficar chorando 
          D         
Mas o que é que tem
     Bm                    Bm/A
Se é isso o que o seu coração quer, 
               E
o que é que eu vou fazer
        D
Mas eu sei
      A            E
Vai doer.... Vai doer....

                  Bm
Esqueça que eu te amo
                 E
Que eu vou me virando
          A       
Segue sua vida
                 Bm
Vai ser melhor assim
                  E
Se não está mais afim
                 A   D  A
Não vejo outra saída
Acordes para:

    0 comentários

      mostrar mais comentários

      Conseguiu tocar?

      3tocaram0ainda não

      Grave um vídeo tocando Esqueça que eu te amo e mande pra gente!

      00:00 / 00:00
      outros vídeos desta música
      repetirqualidadeautomática
      Outro vídeos desta música
        00:00 / 00:00
        automática
        OK