Cifra Club

Porta Retrato

Edson e Hudson

Cifra: Principal (violão e guitarra)
tom: F#
[Intro] F#  F#4  F#  F#9  
        F#  F#4  F#

E|-6---7---7---6---4---4---6---7---7---6----|
B|--7---7---7---7---7---7---7---7---7--7----|
G|---6---6-------6---6-------6---6-----6----|
D|------------------------------------------|
A|------------------------------------------|
E|------------------------------------------|
E|------------------------------------------|

[Primeira Parte]

            F#
Parecia um sonho
               A#m
A gente ficar junto
                B
Andar a pé na chuva
G#m              C#  C#7
   Sem medo de amar
 F#                   A#m
Lembra de tudo que vivemos
                 B
Das tardes de domingo
G#m                C#  C#7
   Da mágica no olhar

[Refrão]

B            C#         F#
Aceitar que tudo se perdeu
          D#m
Amor não dá
   B           C#
Ouvir meu coração pedindo
  A#m        D#m
Pra você voltar
 B              C#
Vai passando o tempo
          F#           D#m
E eu não sei me controlar
     B
Não dá
   C#
Ficar sem você não dá

( F#  D7 )

[Segunda Parte]

             G
No porta retrato
                Bm
A gente se abraçando
                C
Momentos que ficaram
Am                   D
   Difíceis de esquecer
D7
   Ouou...ouou

   G
Te amo
                 Bm
Sei que ainda me ama
                 C
Bateu saudade, chama 
Am                    D  D7
  Que eu volto pra você

[Refrão]

C            D          G
Aceitar que tudo se perdeu
          Em
Amor não dá
   C           D
Ouvir meu coração pedindo
Bm              Em
   Pra você voltar
 C              D
Vai passando o tempo
          G            Em
E eu não sei me controlar
     C
Não dá
   D
Ficar sem você não dá

( G  Eb7 )

[Solo] Ab  Cm  Db  Bbm  Eb7

E|------------------------------------------|
B|------------------------------------------|
G|--------------------1-0-------------------|
D|-----1-1---1h3-1--1-----3-1-1h3-1---------|
A|-1h3-----3--------------------------------|
E|------------------------------------------|

E|------------------------------------------|
B|------------------------------------------|
G|---1-0------------------------------------|
D|-1-----3-1-1--------------1---------------|
A|-------------4--3-4-3-4-3---1h3-1---------|
E|------------------------------------------|

E|------------------------------------------|
B|------------------------------------------|
G|-1p0-1p0---0------------------------------|
D|---------3---3-1-3-1----------------------|
A|---------------------4-3-1-3h4------------|
E|------------------------------------------|

[Refrão]

Db           Eb         Ab
Aceitar que tudo se perdeu
          Fm
Amor não dá
   Db          Eb
Ouvir meu coração pedindo
Cm              Fm
   Pra você voltar
 Db             Eb
Vai passando o tempo
          Ab           Fm
E eu não sei me controlar
     Db
Não dá
   Eb               Ab
Ficar sem você não dá
  Fm
Ouou
     Db
Não dá
   Eb               Ab
Ficar sem você não dá
             Fm      Db
Não dá, não dá, não dá
   Eb
Ficar sem você não dá

[Final] Ab  Gb  E  Gb 
        Ab  Gb  E  Gb  Ab
00:00 / 00:00
Outros vídeos desta música
Repetir
Outros vídeos desta música
Composição de Carlos Randall / Tivas Miguel
702.892 exibições
    • ½ Tom
    • A
    • Bb
    • B
    • C
    • Db
    • D
    • Eb
    • E
    • F
    • F#
    • G
    • Ab
  • Adicionar à lista

    0 comentários

    Ver todos os comentários

    Entre para oCifra Club PRO

    Tenha acesso a benefícios exclusivos no App e no Site

    • Chega de anúncios

    • Prioridade de compra em lançamentos

    • Mais recursos no app do Afinador

    • Atendimento Prioritário

    • Descontos nos produtos Cifra Club

    • Ajude a produzir mais conteúdo

    00:00 / 00:00

    Cifra Club Pro

    Aproveite o Cifra Club com benefícios exclusivos e sem anúncios
    Cifra Club Pro
    Aproveite o Cifra Club com benefícios exclusivos e sem anúncios
    OK