Cifra Club

Porta Retrato

Edson e Hudson

Cifra: Principal (violão e guitarra)
exibições 508.987
Tom: C#
[Intro] F#  F#4  F#  F#9  F#  F#4  F#

E|-6---7---7---6---4---4---6---7---7---6-|
B|--7---7---7---7---7---7---7---7---7--7-|
G|---6---6-------6---6-------6---6-----6-|
D|---------------------------------------|
A|---------------------------------------|
E|---------------------------------------|

            F#
Parecia um sonho
               A#m
A gente ficar junto
                B
Andar a pé na chuva
G#m              C#  C#7
   Sem medo de amar
 F#                   A#m
Lembra de tudo que vivemos
                 B
Das tardes de domingo
G#m                C#    C#7
   Da mágica no olhar
B            C#         F#
Aceitar que tudo se perdeu
          D#m
Amor não dá
   B           C#
Ouvir meu coração pedindo
  Bbm/F      D#m
Pra você voltar
 B              C#
Vai passando o tempo
          F#           D#m
E eu não sei me controlar
     B
Não dá
   C#
Ficar sem você não dá

( F#  D7 )

             G
No porta retrato
                Bm
A gente se abraçando
                C
Momentos que ficaram
Am                  D
  Difíceis de esquecer
D7
Ouou...Ouou
   G
Te amo
                 Bm
Sei que ainda me ama
                 C
Bateu saudade, chama !
Am                    D    D7
  Que eu volto pra você

C            D          G
Aceitar que tudo se perdeu
          Em
Amor não dá
   C           D
Ouvir meu coração pedindo
Bm/F#             Em
     Pra você voltar
 C              D
Vai passando o tempo
          G            Em
E eu não sei me controlar
     C
Não dá
   D
Ficar sem você não dá

( G  D#7 )

[Solo] G#  Cm  C#  A#m  D#7

E|----------------------------------------------------------------------------------------------------|
B|----------------------------------------------------------------------------------------------------|
G|--------------------1-0--------------1-0------------------------------1p0-1p0---0-------------------|
D|-----1-1---1h3-1--1-----3-1-1h3-1--1-----3-1-1---------------1----------------3---3-1-3-1-----------|
A|-1h3-----3-------------------------------------4---3-4-3-4-3---1h3-1----------------------4-3-1-3h4-|
E|----------------------------------------------------------------------------------------------------|

C#           D#         G#
Aceitar que tudo se perdeu
          Fm
Amor não dá
   C#          D#
Ouvir meu coração pedindo
Cm/G             Fm
    Pra você voltar
 C#             D#
Vai passando o tempo
          G#           Fm
E eu não sei me controlar
     C#
Não dá
   D#               G#
Ficar sem você não dá
  Fm
Ouou
     C#
Não dá
   D#               G#
Ficar sem você não dá
             Fm      C#
Não dá, não dá, não dá
   D#
Ficar sem você não dá

( G#  F#  E  F#  G#  F#  E  F#  G# )
Acordes para:

    0 comentários

      mostrar mais comentários

      Conseguiu tocar?

      16tocaram1ainda não

      Grave um vídeo tocando Porta Retrato e mande pra gente!

      00:00 / 00:00
      outros vídeos desta música
      repetirqualidadeAutomático
      Outro vídeos desta música
        00:00 / 00:00
        OK