Cifra Club

Te Quero Pra Mim

Edson e Hudson

Cifra: Principal (violão e guitarra)
exibições 345.473
Tom: E (forma dos acordes no tom de D) Capotraste na 2ª casa
[Intro] D  Bm  G  A
        D  Bm  G  A

E|-------------------------------------------|
B|----5h7-5-------5h7-5-----5h7-5-----5-7-5--|
G|-----------7-7--------7-7-------7-7--------|
D|-------------------------------------------|
A|-------------------------------------------|
E|-------------------------------------------|
E|-------------------------------------------|
B|----5h7-5-------5h7-5-----5h7-5------7-5---|
G|-----------7-7--------7-7-------7-7--------|
D|-------------------------------------------|
A|-------------------------------------------|
E|-------------------------------------------|

D               Bm         G  A
 Chego em casa já é de manhã
   D           Bm        A
Depois de uma noite de amor
D         G
 Do pensamento não sai
Bm                  G     F#m
  Se eu pudesse voltar atrás
                    A
Pra sentir o seu calor

            D
Pra te abraçar
           Bm
Pra te beijar
        G        A        D
Pra saciar essa louca paixão
     Bm       G
Te quero pra mim
    A             D
Viajar no seu prazer
             Bm
No seu mar azul
           G             A       D
Então acender ainda mais esse tesão
         Bm       G
Eu nem quero dormir
         A
Eu te quero pra mim

( D  Bm  G  A )

D            Bm           G  A
 Na minha camisa o seu batom
    D         Bm            A
O cheiro do suor do nosso amor
D              G
 Mas o que eu vou fazer
Bm          G     F#m
  Pra esquecer você
                         A
Sei que não vou mais te ter

            D
Pra te abraçar
           Bm
Pra te beijar
        G        A        D
Pra saciar essa louca paixão
     Bm       G
Te quero pra mim
    A             D
Viajar no seu prazer
             F#m
No seu mar azul
           G             A       D
Então acender ainda mais esse tesão
         Bm      G
Eu nem quero dormir
        A
Eu te quero pra mim

[Solo] D  Bm  G  A
       D  Bm  G  A

E|----------------------------------------------------|
B|--------------10~--8p7------------------------------|
G|-----7h9-9/11----------9p7--9-----------------------|
D|-7h9--------------------------9--7/5-9/7~-----------|
A|----------------------------------------------------|
E|----------------------------------------------------|

E|-10p9-10------10p9----------------------------------|
B|---------10~--------12-7~-7/10-10~--8-8~--7-7~------|
G|----------------------------------------------9-9~--|
D|----------------------------------------------------|
A|----------------------------------------------------|
E|----------------------------------------------------|

            D
Pra te abraçar
          Bm
Pra te beijar
        G         A       D
Pra saciar essa louca paixão
         Bm      G
Eu nem quero dormir
        A        D  Bm
Eu te quero pra mim
G        A        D  Bm
 Eu te quero pra mim
G     A
 Te quero pra mim

[Final] D  Bm  G  A  D

E|-------------------------------------------|
B|----5h7-5-------5h7-5-----5h7-5-----5-7-5--|
G|-----------7-7--------7-7-------7-7--------|
D|-------------------------------------------|
A|-------------------------------------------|
E|-------------------------------------------|
Acordes para:
    Colaboração e revisão:

    0 comentários

      mostrar mais comentários

      Conseguiu tocar?

      6tocaram0ainda não

      Grave um vídeo tocando Te Quero Pra Mim e mande pra gente!

      00:00 / 00:00
      outros vídeos desta música
      repetirqualidadeAutomático
      Outro vídeos desta música
        00:00 / 00:00
        OK