Cifra Club

Mal de Amor

Edu e Maraial

Cifra: Principal (violão e guitarra)
tom: D
(intro 4x)  Bm A G

(riff)
E|----------------------------------------------------|
B|---0-3-5-5p6---2-3-3p5--3-2-0--3-3-3-2-0------------|
G|-------------2--------------------------------------|
D|----------------------------------------------------|
A|----------------------------------------------------|
E|----------------------------------------------------| (4x)

E|----------0-2-------------0------------------------|
B|--3---3---------2---2---3----3-2----2/3-3-2--------|
G|----4---4---------2---2----------4----------4------|
D|---------------------------------------------------|
A|---------------------------------------------------|
E|---------------------------------------------------| (4x)

Bm                     G
Eu queria agora ter um disco voador
D                      A
Pra ir morar de vez em marte
Bm                     G
Não agüento mais estou sofrendo mal de amor
D                   A
Não quero morrer de enfarte
Em                     Bm
Sei que a medicina não encontra a solução
G                   A
Pra mim curar dessa paixão
Em                 Bm
Tá doendo tudo vai parar meu coração
G                  A
E você sabe que eu tô mal, muito mal

(refrão 2x)
D                          A
E por mais que eu fuja pra longe
            G               Bm
Atravesse o universo pra te esquecer
D                          A
As estrelas que brilham no céu
               G
Tem a luz dos teus olhos
          Bm              A
E lembram você

(riff)

Bm                     G
Eu queria agora ter um disco voador
D                      A
Pra ir morar de vez em marte
Bm                     G
Não agüento mais estou sofrendo mal de amor
D                   A
Não quero morrer de enfarte
Em                     Bm
Sei que a medicina não encontra a solução
G                   A
Pra mim curar dessa paixão
Em                 Bm
Tá doendo tudo vai parar meu coração
G                  A
E você sabe que eu tô mal, muito mal

(refrão 3x)
D                          A
E por mais que eu fuja pra longe
            G               Bm
Atravesse o universo pra te esquecer
D                          A
As estrelas que brilham no céu
               G
Tem a luz dos teus olhos
          Bm
E lembram você

(riff)
Composição de Edu Luppa / Isac Maraial / Marquinhos Maraial
Colaboração e revisão:
12.656 exibições
    • ½ Tom
    • A
    • Bb
    • B
    • C
    • Db
    • D
    • Eb
    • E
    • F
    • F#
    • G
    • Ab
  • Adicionar à lista

    0 comentários

    Ver todos os comentários

    Conseguiu tocar?

    0 Tocaram 0 Ainda não

    Grave um vídeo tocando Mal de Amor e nos envie!

    00:00 / 00:00
    Outros vídeos desta música
    Repetir Qualidade Automático
    Outros vídeos desta música
    00:00 / 00:00
    Automático

    Cifra Club Pro

    Aproveite o Cifra Club com benefícios exclusivos e sem anúncios
    Cifra Club Pro
    Aproveite o Cifra Club com benefícios exclusivos e sem anúncios
    OK