Cifra Club

Aprenda

Só Pra Te Olhar

Edu Ribeiro

Cifra: Principal (violão e guitarra)
Tom: A
Intro:

    E         Bm           A        Am         E
E|-4h5-7-5p4---7-5p4-5p4---------4---------4------|
B|-----------7-----------5-----5---5-5---5---5----|
G|-------------------------4h6---------6----------|
D|------------------------------------------------|
A|------------------------------------------------|
E|------------------------------------------------|

               Bm           A        Am         E
E|-4-7h9p7-5\4---7-5p4-5p4---------4---------4----|
B|-------------7-----------5-----5---5-5---5---5--|
G|---------------------------4h6---------6--------|
D|------------------------------------------------|
A|------------------------------------------------|
E|------------------------------------------------|

Refrão:

          Bm                      A
Eu fico o dia todo de frente pro mar
            Am                E
Só pra te olhar, só pra te olhar
          Bm                      A
Fico esperando a hora de você passar
            Am               E
Só pra te olhar, só pra te olhar

           Bm               A
Andando ao sol, te vi aparecer
        Am                     E
Saiu do mar, pro corpo se aquecer
       Bm                   A
Olhos azuis, cabelo cor do sol
          Am                 E
O teu brilhar virou o meu farol
            Bm                A
Quando te olhei, você nem me notou
       Am                   E
Te esperei mas você não voltou
            Bm                     A
Ah, hoje eu sei que amanhã eu vou voltar
         Am                 E
E vou torcer pra te ver passar

(Refrão 2x)

          E         Bm             A          Am
E|--------------------------------------------------------------|
B|-9h10-9-----9h10-9------------------------------12-10---------|
G|--------9-9--------9-9------9-11b(12)-11-9--------------------|
D|-----------------------9h11----------------9h10---------------|
A|--------------------------------------------------------------|
E|--------------------------------------------------------------|

     E          Bm                     A           Am          E
E|------11-11------12-12-------12-14-14b(15)14-12---------------|
B|-9h10-------9h10-------12-14--------------------12b13b12-10\9-|
G|--------------------------------------------------------------|
D|--------------------------------------------------------------|
A|--------------------------------------------------------------|
E|--------------------------------------------------------------|

(Repete tudo)
Colaboração e revisão:
  • Emerson Figueiredo
  • Edson Lins
14.054 exibições
    • ½ Tom
    • A
    • Bb
    • B
    • C
    • Db
    • D
    • Eb
    • E
    • F
    • F#
    • G
    • Ab
  • Adicionar à lista

    0 comentários

    Mostrar mais comentários

    Conseguiu tocar?

    4 Tocaram 0 Ainda não

    Grave um vídeo tocando Só Pra Te Olhar e mande pra gente!

    00:00 / 00:00
    outros vídeos desta música
    repetir qualidade Automático
    Outros vídeos desta música
    00:00 / 00:00
    Automático

    Cifra Club Pro

    Aproveite o Cifra Club com benefícios exclusivos e sem anúncios
    7 dias grátis
    Cifra Club Pro
    Aproveite o Cifra Club com benefícios exclusivos e sem anúncios
    7 dias grátis
    OK