Cifra Club

Eu Aposto

Eduardo Costa

Cifra: Principal (violão e guitarra)
tom: F
[Intro] F  Gm7  F  Gm7  
        C  Bb  C

E|---------------------------------------------------------|
B|---------6-6~~-6/8--6-------------6-6/8~~--8/10----------|
G|---5-5p7-------------------5-5p7-------------------------|
D|---------------------------------------------------------|
A|---------------------------------------------------------|
E|---------------------------------------------------------|

E|---------------------------------------------------------|
B|---------6-6/8~~--8/10------------6-6~~------------------|
G|---5-5p7-------------------5-5p7-------------------------|
D|---------------------------------------------------------|
A|---------------------------------------------------------|
E|---------------------------------------------------------|
   F       F4                                       Gm
Eu aposto...., a minha vida,   meu sorriso, o meu dinheiro
                      F/A                 Bb
Quando seu rosto encostar ........ .no travesseiro
         Gm                     C          C4 C
Seus pensamentos vão tentar achar os meus

F        F4                                      Gm
Eu aposto.... que a sua paz vai guerrilhar com a saudade
                         F/A           Bb
Seu coração vai descobrir....  toda verdade
         Gm                         C   C7
Na minha falta vai buscar ajuda em Deus

            Bb                                          Am
Ah!.... eu aposto...que as suas noites vão ser longas e vazias
         Dm              D7             Gm
Vai me lembrar, chorar, até contar os dias
    Bb                            C7
A solidão não vai caber em nossa casa

        F              F4                           Gm
Se eu perder..... vai doer menos do que está doendo agora
                          F/A          Bb
Quando você me disse: chega!. tô indo embora
     C                                 F
Meu coração me  disse : aposta que ela volta
         F                                          Gm
Mas se eu ganhar ... logo  vou vêr aquela porta se abrindo
                        F/A               Bb
Você entrar, me abraçar, ......   dizer sorrindo
    Gm              C7                  F
Que eu sou tudo,tudo que você, mais gosta
Composição de César Augusto / Cláudio Noam / Eduardo Costa
265.660 exibições
    • ½ Tom
    • A
    • Bb
    • B
    • C
    • Db
    • D
    • Eb
    • E
    • F
    • F#
    • G
    • Ab
  • Adicionar à lista

    0 comentários

    Ver todos os comentários
    00:00 / 00:00
    Outros vídeos desta música
    Repetir Qualidade Automático
    Outros vídeos desta música
    00:00 / 00:00
    Automático

    Cifra Club Pro

    Aproveite o Cifra Club com benefícios exclusivos e sem anúncios
    Cifra Club Pro
    Aproveite o Cifra Club com benefícios exclusivos e sem anúncios
    OK