Cifra Club

Aprenda

Vai Viver a Sua Vida

Eduardo Costa

Cifra: Completa (violão e guitarra)
tom: F
Intro:
   F Gm Am Gm Am Bb                                      F           F Gm Am Gm Am Bb
E|------------------------------------6p5--------------------------------------------
B|-----------------6~---------------6----8p6-----------------------------------------
G|--------------5/7-----7-7/5-3-5/7---------7-5---------5-7--------------------------
D|-3-5-7-5-7--8----------------------------------7-3-5/7-----7/5-3--3--5--7--5--7--8-
A|-----------------------------------------------------------------------------------
E|-1-3-5-3-5--6-----------------------------------------------------1--3--5--3--5--6-

   Bb
E|-10-10-10-8--8--6-6-5-5-3-3--------------------
B|-11-11-11-10-10-8-8-6-6-5-5-6-6-5-5--------6-6-
G|--------------------------=-7-7-5-5-5-3-5/7----
D|-----------------------------------------------
A|-----------------------------------------------
E|-----------------------------------------------
              C                Bb                  F
E|------------------------------------------------1---|
B|--6-10/8-6-8----8-6-5--------6-6~---------------1---|
G|-----------------------5-5/7--------------------2---|
D|--------------------------------------3---------3---|
A|----------------------------------3/5---5/3--1--3---|
E|------------------------------------------------1---|

F
Alô quem é?
         Am
Com quem você quer falar?
    Dm                        Am
Não tem ninguém aqui com esse nome
Bb                       F           Dm
Você se enganou, discou errado o telefone
  Gm            C
Já te falei, não me procure mais

F
Alô quem é?
        Am                      Dm
Não acredito que é você de novo Tentando insistir
     Am                          Bb
Já é tarde e isso não é hora de ligar pra mim
      Gm                        C Bb Am Gm F Em Bb
Porque é que você não me deixa em paz
Bb                                        Am
Quer saber, se você quer me ouvir então eu vou falar
        Dm                       Gm
Quantas vezes te liguei pedindo pra voltar
     C                          Cm            F F Gm Am Bb
E você nem se importava com meu coração...coração
Bb                                        Am
Quer saber, você não sabe a metade do que eu passei
     Dm                          Gm
O que fez comigo eu não desejo pra ninguém
     Bb               C        F           Bb F
E só agora eu consegui me levantar do chão

 F             Gm
Vá viver a sua vida
                  C
Vá seguir o seu caminho
                  F              Am          Dm
Vá passar o que passei, quando eu estava sozinho

                C                        C
Vá viver a sua vida e entender o que é o amor
                  Bb
Vá sofrer o que sofri
                   C                          F    Bb F
Vá chorar o que chorei, pra aprender a dar valor

SOLO D#  D#   D#  C  F

 F             Gm
Vá viver a sua vida
                  C
Vá seguir o seu caminho
                  F              Am          Dm
Vá passar o que passei, quando eu estava sozinho

                C                        C
Vá viver a sua vida e entender o que é o amor
                  Bb
Vá sofrer o que sofri
                   C                          F    Bb F
Vá chorar o que chorei, pra aprender a dar valor

 F             Gm
Vá viver a sua vida
                  C
Vá seguir o seu caminho
                  F              Am          Dm
Vá passar o que passei, quando eu estava sozinho

                C                        C
Vá viver a sua vida e entender o que é o amor
                  Bb
Vá sofrer o que sofri
                   C                          F    Bb F
Vá chorar o que chorei, pra aprender a dar valor

                   C                        F    Bb F Bb                     F
Vá chorar o que chorei, pra aprender a dar valor,    pra aprender a dar valor
Composição de Alex Torricelli / Kadu Brunhera
Colaboração e revisão:
  • Juliernie Pereira
1.690 exibições
  • Simplificar cifra
    • ½ Tom
    • A
    • Bb
    • B
    • C
    • Db
    • D
    • Eb
    • E
    • F
    • F#
    • G
    • Ab
  • Adicionar à lista

    0 comentários

    Ver todos os comentários

    Conseguiu tocar?

    1 Tocaram 0 Ainda não

    Grave um vídeo tocando Vai Viver a Sua Vida e nos envie!

    00:00 / 00:00
    Outros vídeos desta música
    Repetir Qualidade Automático
    Outros vídeos desta música
    00:00 / 00:00
    Automático

    Cifra Club Pro

    Aproveite o Cifra Club com benefícios exclusivos e sem anúncios
    Cifra Club Pro
    Aproveite o Cifra Club com benefícios exclusivos e sem anúncios
    OK