Cifra Club

Aprenda

Eiskalt Erwischt

Eisbrecher

Tab de baixo: Principal
Drop D tuning

If you have trouble reading then copy and paste it into notepad, and it should be fine

Intro
G|---------------------------------------|
D|---------------------------------------|
A|---------------------------------------|  x 4
D|--0-0-0-0-2-0-0-3-2-0-0-0-0-2-0-0-2-3--|


Verse "jeder nacht"
G|---------------------------------------|
D|---------------------------------------|
A|---------------------------------------|  x 8
D|--0-0-0-0-2-0-0-3-2-0-0-0-0-2-0-0-2-3--|

Pause for pre-chorus

"und weider, und weider"

Chorus
G|---------------------------------------------|
D|---------------------------------------------|
A|--------------------0------------------------|
D|--0--------3-----------------2-1-0-2-1-0-2-0-|

G|---------------------------------------------|
D|---------------------------------------------|
A|--------------------0------------------------|
D|--0--------3-----------------2-1--2-1--2-1---|



Pre-Verse
G|---------------------------------------|
D|---------------------------------------|
A|---------------------------------------|  x 6
D|--0-0-0-0-2-0-0-3-2-0-0-0-0-2-0-0-2-3--|

Verse "jeder nacht"
G|---------------------------------------|
D|---------------------------------------|
A|---------------------------------------|  x 8
D|--0-0-0-0-2-0-0-3-2-0-0-0-0-2-0-0-2-3--|


Chorus
G|---------------------------------------------|
D|---------------------------------------------|
A|--------------------0------------------------|
D|--0--------3-----------------2-1-0-2-1-0-2-0-|

G|---------------------------------------------|
D|---------------------------------------------|
A|--------------------0------------------------|
D|--0--------3-----------------2-1--2-1--2-1---|

G|---------------------------------------------|
D|---------------------------------------------|
A|--------------------0------------------------|
D|--0--------3-----------------2-1-0-2-1-0-2-0-|

G|---------------------------------------------|
D|---------------------------------------------|
A|--------------------0------------------------|
D|--0--------3-----------------2-1--2-1--2-1---|

Bridge
G|----------------------------------------------| gradually speeds up as you play it
D|----------------------------------------------|
A|----------------------------------------------| not sure how many times you play it
D|--0-0-0-0-0-0-0-0-0-0-0-0-0-0-0-0-0-0-0-0-0-0-| just listen to the track


Pre-Verse
G|---------------------------------------|
D|---------------------------------------|
A|---------------------------------------|  x 4
D|--0-0-0-0-2-0-0-3-2-0-0-0-0-2-0-0-2-3--|


Chorus
G|---------------------------------------------|
D|---------------------------------------------|
A|--------------------0------------------------|
D|--0--------3-----------------2-1-0-2-1-0-2-0-|

G|---------------------------------------------|
D|---------------------------------------------|
A|--------------------0------------------------|
D|--0--------3-----------------2-1--2-1--2-1---|

G|---------------------------------------------|
D|---------------------------------------------|
A|--------------------0------------------------|
D|--0--------3-----------------2-1-0-2-1-0-2-0-|

G|---------------------------------------------|
D|---------------------------------------------|
A|--------------------0------------------------|
D|--0--------3-----------------2-1--2-1--2-1---|
Composição de Noel Pix
305 exibições

0 comentários

Ver todos os comentários

Conseguiu tocar?

0 Tocaram 0 Ainda não

Grave um vídeo tocando Eiskalt Erwischt e nos envie!

00:00 / 00:00
outros vídeos desta música
repetir qualidade Automático
Outros vídeos desta música
00:00 / 00:00
Automático

Cifra Club Pro

Aproveite o Cifra Club com benefícios exclusivos e sem anúncios
Cifra Club Pro
Aproveite o Cifra Club com benefícios exclusivos e sem anúncios
OK