Cifra Club

Pobre Soñador

El Tri

Cifra: Principal (violão e guitarra)
Selo Cifra Club: esta cifra foi revisada para atender aos critérios oficiais da nossa Equipe de Qualidade.
tom: G
E|----3---0------------------------------/|
B|-3---------3---------------------------|
G|---2--0---2--2-0-----------------------|
D|--0--0-0-0--0-0--2--2-----2--2---------|
A|-1--0---0--1----3--3-3---3--3-3--------|
E|---------------2--0---0-3--2-----------|

"HERMANAC S EN EL CANTO

QUE A S B D NAS LE ENSEÑARON

A LOS HOMBD S, PARA LLEGAR

AL MUNC  ROMÁNTICO DE A  MUJER"


     C    G
 No siempre
      Em    C          D
 las cosas son como debieran ser
     C    G
 No siempre
     Em      C        D
 se puede tener la razón

     C    G
 Tu me haces
     Em      C            D
 sentir como en un juego de baseball
     C   G
 Me ponchas
    Em       C             D  Db
 o me haces batear de homerun

C
 Tu eres como un sueño

 y yo tan solo soy
     G
 un pobre soñador

C
 Tu eres como un sueño

 y de ese sueño
         D
 nunca quiero despertar


           C  G
 Por eso, nunca
    Em      C       D
 los ojos quisiera volver a abrir
    C  G
 Soñando
   Em          C       D
 así es como quiero vivir

     C  G
 Viajando
   Em         C            D
 viajando en la noche en la oscuridad
    C G
 Tu eres
      Em     C        D   Db
 mi escape de la realidad


C
 Tu eres como un sueño

 y yo tan solo soy
     G
 un pobre soñador

C
 Tu eres como un sueño

 y de ese sueño
         D
 nunca quiero despertar

 no quiero

 C G Em  C D              C G Em  C D
E|-------------------------------------------------------------/|
B|-------------------------------------------------------------|
G|-------------------------------------------------------------|
D|-7-7------------------7-7-7-7--------------------------------|
A|-8-8----------------10----8-8----------------10--------------|
E|-8-7-7-7-8-10-10-8-7------8-7-7-7-8-10-10-8-7----------------|

    C           G         C          D (solo de harmonica)

 C G Em  C D              C G Em  C D           Db
E|-------------------------------------------------------------/|
B|-------------------------------------------------------------|
G|-------------------------------------------------------------|
D|-7-7------------------7-7-7-7--------------------------------|
A|-8-8----------------10----8-8----------------10--------------|
E|-8-7-7-7-8-10-10-8-7------8-7-7-7-8-10-10-8-7----------------|

C
 Tu eres como un sueño

 y yo tan solo soy
     G
 un pobre soñador

C
 Tu eres como un sueño

 y de ese sueño
         D
 nunca quiero despertar



 Por eso
* C  G
 nunca
    Em      C           G
 ya nunca quiero dejar de soñar
       C   G
 Que importa
        Em     C         D
 que el mundo deje de rodar

 que mas da

   C  G
 Contigo
     Em       C           D
 me pienso escapar de la realidad
    C  G
 y nunca
    Em      C         D
 ya nunca quiero regresar, jamas
  C  G        (**)aquí va el ultimo arpegio
 nuncaaaaaaaa

*A partir de aquí, se acompaña la letra con el requinto
que esta en medio de la rola, solo con una variación leve:

 C G Em  C D                        C G Em  C D
E|-------------------------------------------------------------/|
B|-------------------------------------------------------------|
G|-------------------------------------------------------------|
D|-7-7------------------7-7-------9-7-7-7----------------------|
A|-8-8----------------10---8-7h8p7----8-8----------------10----|
E|-8-7-7-7-8-10-10-8-7----------------8-7-7-7-8-10-10-8-7------|

y el ultimo arpegio (**), es el siguiente:

   C  G   Em  C D     C G D
E|------------------------------------------------------------/|
B|------------------------------------------------------------|
G|------------------------------------------------------------|
D|-----7--8-7-7-9-11-11-9-7-2---2--2-----2--2-----------------|
A|----8--8-------------------3-3--3-3---3--3-3----------------|
E|---8--7---7-7-8-10-10-8-7---2--0---0-3--2-------------------|


O este, ustedes eligen, es lo mismo:

   C  G   Em  C D     C G D
E|------------------------------------------------------------/|
B|------------------------------------------------------------|
G|----------------------------7--7-----7--7-------------------|
D|-----7--8-7-7-9-11-11-9-7--7--7-7---7--7--------------------|
A|----8--8------------------7--5---5-8--7---------------------|
E|---8--7---7-7-8-10-10-8-7-----------------------------------|
Este arpegio son 2 ò 3 veces las ke uds kieran


Hoy 07/11/15 pongo el ultimo arpegio, que es el que lleva la canción
el anterior es solo para principiantes este es para avanzados ahí va:

(#)
(*)
E|--------------------------------------/|
B|--------------------------------------|
G|--------------------------------------|
D|-7------7-----8-7--7------------------|
A|--8---8-----8---------8--8---8---8--3-|
E|---8------7-----7--7--8--10--10--8--3-|

(**)
E|--------------------------------------------/|
B|--------------------------------------------|
G|--------------------------------------------|
D|-2-------2--------2-------------2--------2--|
A|--3---3-------3------3-------3--------3-----|
E|---2-------0------------0-3--------2--------|

(*)
E|--------------------------------------/|
B|--------------------------------------|
G|--------------------------------------|
D|-7------7-----7-7--7------------------|
A|--8---8-----8---------8--8---8---8--3-|
E|---8------7-----7--7--8--10--10--8--3-|

E|------------------------------------------------/|
B|------------------------------------------------|
G|------------------------------4--------2------0-|
D|-2-------2-------2---(0-2-0)----0--------0------|
A|--3---3-------3--------------------3--------3---|
E|---2-------0------------------------------------| e y de aquí se repite(#)


(*) Posición de "D" en el 7mo traste
(**)Posición de "D" normal 3er traste
(0-2-0) 0 al aire después pisar 2 y soltar

  Db

E|-----x--/|
B|-----x--|
G|-----x--|
D|-----1--|
A|-----2--|
E|-----1--|

espero que les guste, y que conquisten a aquella persona con este
himno de El Tri.

 "HASTA LUEGO ESA BANDERA,
  SU INSEGURO SERVIC R,
  EL QUE DICE ESTAR DISPUESTO,
  SOY EL POBD  SOÑAC R"
Outros vídeos desta música
    4.639 exibições
      • ½ Tom
      • A
      • Bb
      • B
      • C
      • Db
      • D
      • Eb
      • E
      • F
      • F#
      • G
      • Ab
    • Adicionar à lista

    Afinação da cifra

    Afinador online

      0 comentários

      Ver todos os comentários

      Entre para o Cifra Club PRO

      Tenha acesso a benefícios exclusivos no App e no Site

      • Chega de anúncios

      • Badges exclusivas

      • Mais recursos no app do Afinador

      • Atendimento Prioritário

      • Aumente seu limite de lista

      • Ajude a produzir mais conteúdo

      Cifra Club Pro

      Aproveite o Cifra Club com benefícios exclusivos e sem anúncios
      Cifra Club Pro
      Aproveite o Cifra Club com benefícios exclusivos e sem anúncios
      OK