Cifra Club

Eu Sou

Eli Soares

Tab de baixo: Principal
exibições 2.680
[Introdução]

G|-----------------------9-7/8\7----------------|
D|----9-7/8\7--------------------9---7-9--7-9---|
A|------------9---7-9--7-----------9------------|
E|-7------------9-------------------------------|

G|----------------------9/11--9/11-9-7----------|
D|-----9-7/9\7-------------------------9--------|
A|-------------9---7-9--------------------------|
E|-7-------------9------------------------------|

[Primeira Parte]

Eu sou mais que vencedor...

Parte 1 de 3

   T  P T    P T    P T    P   T  P T
G|-----------x------9---------------------------|
D|----9--------------------7h9----9-------------|
A|-------------5/7----4-5-----------------------|
E|-7----4-5--------------------7----4-5---------|

   P T    P P   P T    P  T    P  T   P T
G|-x------9-7h9-x------7-------9----------------|
D|------------------------------------9---------|
A|---5/7----------4/5-----5/7-------------------|
E|--------------------------------5/7---4-5-----|

Parte 2 de 3

   P T    P T    T    P T    P T    P T    P
G|-x------9------------------x------9-----------|
D|--------------------9--------------------5h7--|
A|---5/7----4-5----------------5/7----4-5-------|
E|---------------5/7----4-5---------------------|

   T  P P T    P T    P P T    P T P P T
G|-------------x------9-x-----------------------|
D|----9-x----------------------7---7-x----------|
A|---------------5/7------4-5-------------------|
E|-7------4-5--------------------9-----4-5------|

Parte 3 de 3

   P T    P P  P   T   T    T
G|-x------9-7--7h9------------------------------|
D|-----------------7h9--------------------------|
A|---5/7---------------7h9--5h7-----------------|
E|----------------------------------------------|


[Refrão]

Eu sou o que a Bíblia diz que eu sou...

G|----------------------------------------------|
D|----------------------------------------------|
A|----------------------------------------------|
E|-7-7-7-x-7-x-5-5-5-x-5--x-7-7-7-x-7-x-5-5-5-x-|

G|----------------------------------------------|
D|-----7-7h9-------------------------------7----|
A|---7-------7h9p7----7----------------------7--|
E|-5---------------10---10-7-7-x-5-5-5-x-5----5-|

G|----------------------------------------------|
D|----------------------------------------------|
A|----------------------------------------------|
E|-7-7-7-x-7-x-5-5-5-x-5------------------------|


[Introdução 2]

G|-----------------------9-7/8\7----------------|
D|----9-7/8\7--------------------9---7-9--7-9---|
A|------------9---7-9--7-----------9------------|
E|-7------------9-------------------------------|

G|----------------------9/11--9/11-9-7----------|
D|-----9-7/9\7-------------------------9--------|
A|-------------9---7-9--------------------------|
E|-7-------------9------------------------------|


[Segunda parte]

Eu sou mais que vencedor...

Parte 1 de 2

          T  P T    P   T  P T    P T    P T
G|-----------9--------------------x------9------|
D|------------------7h9----9--------------------|
A|--------7----4-5------------------5/7----4-5--|
E|-9--4-5---------------7----4-5----------------|
  

   T  P T     T    P T     T  P P T   P T   P
G|-----------------9------------------x-----9---|
D|----9-----------------------9-x---------------|
A|------------5/7----4-5----------------5/7-----|
E|-7----4-5----------------7------4-5-----------|

   T
G|----------------------------------------------|
D|----------------------------------------------|
A|-4-5------------------------------------------|
E|----------------------------------------------|

Parte 2 de 2

   T  T  P T   T  P T   T        P
G|-------9-----------------------7h9------------|
D|----------------9-----------------------------|
A|----7----4-5----------------------------------|
E|-7\----------7----4-5--0-0-0-0----------------|


   T  P P T    P T    P P T    P T P P T
G|-------------x------9-x-----------------------|
D|----9-x----------------------7---7-x----------|
A|---------------5/7------4-5-------------------|
E|-7------4-5--------------------9-----4-5------|

   P T    P  
G|-x------9-------------------------------------|
D|----------------------------------------------|
A|---5/7----4-5--9\-----------------------------|
E|----------------------------------------------|


[Refrão 2]

Eu sou o que a Bíblia diz que eu sou...

Parte 1 de 2 
G|----------------------------------------------|
D|---------------------5h7---------------9------|
A|-------------------------7-----------9--------|
E|-7-7-7-x-5h7-x-5-5-5-------5-x-7-7-7----------|

G|----------------------------------------------|
D|----------9---9---7---5h7-----5---------------|
A|--------7---7---7---x-----5h7---7-5-----5-----|
E|-x-5-5------------------------------7-5---5-7-|

Parte 2 de 2
G|----------------------------------------------|
D|------7-----7---------------------------------|
A|--------------7-------------------------------|
E|-5-5----5-5-----5-7-7-7-x-7-x-5-5-5-x-5--5----|


[Terceira parte] 

La ra, la ra, la ra!...

G|----------------------------------------------|
D|----------------------------------------------|
A|-----7-5-----7-5-----7-5-----7-5--------------|
E|-7-9-----7-9-----7-9-----7-9------------------|


[Refrão 3]

Eu sou o que a Bíblia diz que eu sou...

Parte 1 de 4
G|----------------------------------------------|
D|----------------------------------------------|
A|----------------------------------------------|
E|-7-7-7-x-7-x-5-5-5-x-5--x-7-7-7-x-7-----------|

G|--------7-5/6---------------------------------|
D|------7--------7-5-4--------------------------|
A|---------------------7-6-5-4------------------|
E|-x-5-------------------------7-6-5------------|

Parte 2 de 4
G|------------7-----------0-12-13-14------------|
D|----9-x-7-9-----------------------------------|
A|----------------------------------------------|
E|-7-------------0-7-6-5------------------------|

G|----------------------------------------------|
D|---7---5---------x-7h9----------7-7-----7-7---|
A|-5---5---7-5----------------------------------|
E|--------------7--------5h7--x-5-----5-5-------|

Parte 3 de 4
G|---------7/8\7--------------------------------|
D|-----7h9-------9----------7--------7-----7----|
A|-----------------------------x-9-7---9--------|
E|-5-7-------------0-7-6-5---------------5------|

G|--------------7-7-----------------------------|
D|----9---x-7-9-----9---------------------------|
A|----------------------------------------------|
E|x-7------------------0-7-6-5--5-5-x-5---------|

Parte 4 de 4
G|----------------------------------------------|
D|-----7h9--------------7---------7-x-7h9-------|
A|------------------------7-----------------9---|
E|-7-7-----5-5-5-x-5-5------5--7----------7---7-|

G|----------------------------------------------|
D|------7---------------------------------------|
A|---------------5h7----------------------------|
E|-5-5----5-5-5------5--------------------------|


[Introdução 3 Final]
 
G|-----------------------9-7/8\7----------------|
D|----9-7/8\7--------------------9---7-9--7-9---|
A|------------9---7-9--7-----------9------------|
E|-7------------9-------------------------------|

G|----------------------9/11--9/11-9-7----------|
D|-----9-7/8\7-------------------------9--------|
A|-------------9---7-9--------------------------|
E|-7-------------9------------------------------|

G|-9/11--9/11-9-7-----9/11--9/11-9-7------------|
D|----------------9------------------9----------|
A|----------------------------------------------|
E|----------------------------------------------|
Composição: Eli Soares Colaboração e revisão:
  • Reginaldo Costa

0 comentários

mostrar mais comentários

Conseguiu tocar?

1 tocaram 0 ainda não

Grave um vídeo tocando Eu Sou e mande pra gente!

00:00 / 00:00
outros vídeos desta música
repetir qualidade Automático
Outros vídeos desta música
00:00 / 00:00
Automático
Capítulos
  • Tocando a música
  • Apresentação / Equipamentos
  • TAB - Introdução
  • TAB - Primeira Parte - Parte 1 de 3
  • TAB - Primeira Parte - Parte 2 de 3
  • TAB - Primeira Parte - Parte 3 de 3
  • TAB - Refrão
  • TAB - Segunda Parte - Parte 1 de 2
  • TAB - Segunda Parte - Parte 2 de 2
  • TAB - Refrão 2 - Parte 1 de 2
  • TAB - Refrão 2 - Parte 2 de 2
  • TAB - Terceira Parte
  • TAB - Refrão 3 - Parte 1 de 4
  • TAB - Refrão 3 - Parte 2 de 4
  • TAB - Refrão 3 - Parte 3 de 4
  • TAB - Refrão 3 - Parte 4 de 4
  • TAB - Introdução 3
  • Encerramento
OK