Cifra Club

Tu És Soberano

Eli Soares

Cifra: Principal (violão e guitarra)
Selo Cifra Club: esta cifra foi revisada para atender aos critérios oficiais da nossa Equipe de Qualidade.
tom: C
[Intro] : Dm  Em  Am  G/B  C  G  C

                          C
E|------------------------3-----|
B|------------------------3-----|
G|------7-9---------------5-----|
D|----------7--9-10---5---5-----| (2X)
A|------------------------3-----|
E|------------------------------|

 C       G/B            Am
Tu és Soberano sobre a Terra
 G                      F                 C G
Sobre os céus tu és Senhor absoluto
C      G/B             Am
Tudo que existe e acontece
G                  F
Tu o sabes muito bem
           C
Tu és Tremendo

[Refrão]

                       C
E|---------------------3-----|
B|---------------------3-----|
G|--7-9----------------5-----|
D|------7--9-10---5----5-----| (2X)
A|---------------------3-----|
E|---------------------------|

Dm     Em    Am     G/B  C  G   C
E apesar dessa glória que tens
Dm     Em    Am     G/B  C  G   C     G/B
Tu te importas comigo também
Am                G
E este amor tão grande
F            D/F#       G
Eleva-me, amarra-me a ti
F Em Dm G/B    C
Tu és Tremendo

[Riff]
                     C
E|-------------------3----|
B|-------------------3----|
G|--10/--9/--7/--4/--5----|
D|-------------------5----|
A|--8/---7/--5/--2/--3----|
E|------------------------|


Solo: F  C  F

E|---8-7------------------|
B|-------10-8--10---------|
G|-----------------7/9~---|
D|------------------------| (2X)
A|------------------------|
E|------------------------|


  C       G/B            Am
Tu és Soberano sobre a Terra
 G                      F                 C G
Sobre os céus tu és Senhor absoluto
C      G/B             Am
Tudo que existe e acontece
G                  F
Tu o sabes muito bem
           C
Tu és Tremendo

[Refrão]

                       C
E|---------------------3-----|
B|---------------------3-----|
G|--7-9----------------5-----|
D|------7--9-10---5----5-----| (2X)
A|---------------------3-----|
E|---------------------------|


Dm     Em    Am     G/B  C  G   C
E apesar dessa glória que tens
Dm     Em    Am     G/B  C  G   C     G/B
Tu te importas comigo também
Am                G
E este amor tão grande
F            D/F#       G
Eleva-me, amarra-me a ti
F Em Dm G/B    C
Tu és Tremendo


[Solo] F  G  Am  G/B  C  G (2x)
       F

E|-----------------------------------------------|
B|-8-8-8-8/--10-5-5-5--8/-5-5-5-5/-8-6/5---------|
G|--5-5-5--------5-5-5-----5-5-5---------7~------|
D|-----------------------------------------------| (2X)
A|-----------------------------------------------|
E|-----------------------------------------------|

[Refrão]

                       C
E|---------------------3-----|
B|---------------------3-----|
G|--7-9----------------5-----|
D|------7--9-10---5----5-----| (2X)
A|---------------------3-----|
E|---------------------------|

Dm     Em    Am     G/B  C  G   C
E apesar dessa glória que tens
Dm     Em    Am     G/B  C  G   C     G/B
Tu te importas comigo também
Am                G
E este amor tão grande
F            D/F#       G
Eleva-me, amarra-me a ti
F Em Dm G/B    C
Tu és Tremendo

                     C
E|-------------------3----|
B|-------------------3----|
G|--10/--9/--7/--4/--5----|
D|-------------------5----|
A|--8/---7/--5/--2/--3----|
E|------------------------|


Final

E|-----------------------|
B|--5-6------------------|
G|------4--5-7-----------|
D|--------------2-3------|
A|-----------------------|
E|-----------------------|

E|-----------------------|
B|-------3-5-------------|
G|-2-4-5-----------------|
D|------------2-5-0------|
A|-----------------------|
E|-----------------------|

                     C
E|----------------------|
B|----------------------|
G|--7-9-----------------|
D|------7--9-10---------|
A|--------------8-------|
E|----------------------|
00:00 / 00:00
Outros vídeos desta música
Repetir
Outros vídeos desta música
119.361 exibições
    • ½ Tom
    • A
    • Bb
    • B
    • C
    • Db
    • D
    • Eb
    • E
    • F
    • F#
    • G
    • Ab
  • Adicionar à lista

Afinação da cifra

Afinador online

    0 comentários

    Ver todos os comentários

    Entre para o Cifra Club PRO

    Tenha acesso a benefícios exclusivos no App e no Site

    • Chega de anúncios

    • Mais recursos no app do Afinador

    • Atendimento Prioritário

    • Aumente seu limite de lista

    • Ajude a produzir mais conteúdo

    00:00 / 00:00

    Cifra Club Pro

    Aproveite o Cifra Club com benefícios exclusivos e sem anúncios
    Cifra Club Pro
    Aproveite o Cifra Club com benefícios exclusivos e sem anúncios
    OK