Cifra Club

Tudo Que Eu Sou

Eli Soares

Cifra: Principal (violão e guitarra)
exibições 211.724
Tom: E
[Introdução]

E|-----------------------------------------------------|
B|-----------------------------------------------------|
G|-----------------------------------------------------|
D|------------------2br-------2--3--4----2/4--2~-------|
A|-2--3--4------2-4------4-2-----------4---------------|
E|------------4----------------------------------------|

E|-----------------------------------------------------|
B|-----------------------------------------------------|
G|-----------------------------------------------------|
D|------------------2br-------2--3--4----2/4--2~-------|
A|-2--3--4------2-4------4-2-----------4----------4----|
E|------------4----------------------------------------|

E|-----------------------------------------------------|
B|-----------------------------------------------------|
G|-----------------------------------------------------|
D|------------------2br-------2--3--4----2/4--2~-------|
A|-2--3--4------2-4------4-2-----------4----------4-3--|
E|------------4----------------------------------------|

E|-----------------------------------------------------|
B|-----------------------------------------------------|
G|-----------------------------------------------------|
D|------------------2h4--2-----------------------------|
A|-2--3--4------2-4--------4-2-------------------------|
E|------------4----------------4-2-0--1--2-------------|


[Primeira Parte]

E|-----------------------------------------------------|
B|-----------------------------------------------------|
G|-----------------------------------------------------|
D|------------------2br-------2--3--4----2/4--2~-------|
A|-2--3--4------2-4------4-2-----------4----------4-3--|
E|------------4----------------------------------------|

E|-----------------------------------------------------|
B|-----------------------------------------------------|
G|-----------------------------------------------------|
D|------------------2br-------2--3--4----2/4--2~-------|
A|-2--3--4------2-4------4-2-----------4---------------|
E|------------4----------------------------------------|

E|-----------------------------------------------------|
B|-----------------------------------------------------|
G|-----------------------------------------------------|
D|------------------2br-------2--3--4----2/4--2~-------|
A|-2--3--4------2-4------4-2-----------4----------4-3--|
E|------------4----------------------------------------|

E|-----------------------------------------------------|
B|-----------------------------------------------------|
G|-----------------------------------------------------|
D|------------------2h4--2-----------------------------|
A|-2--3--4------2-4--------4-2-------------------------|
E|------------4----------------4-2-0--1--2-------------|

             C#m7(9)
Tudo que eu sou

Tudo o que há em mim
              F#7
Tudo foi meu Pai que deu
               C#m7(9)
Tudo o que eu tenho

Não que eu mereça
           F#7
Tudo isso vem de Deus

             C#m7(9)
Tudo que eu sou

Tudo o que há em mim
              F#7
Tudo foi meu Pai que deu
               C#m7(9)
Tudo o que eu tenho

Não que eu mereça
           F#7
Tudo isso vem de Deus

Vem de Deus


C#m7
     Sozinho eu não consigo
        F#7
Pai, eu

Sem Ti eu não consigo
         C#m7(9)
Meu Deus
                       F#7
Sozinho eu não consigo
               C#m7(9)
Eu não consigo


Sozinho eu não consigo
        F#7
Pai, eu

Sem Ti eu não consigo
         C#m7(9)
Meu Deus
                      
Sozinho eu não consigo
           F#7
Eu não consigo

Não consigo


[Refrão]

E|-----------------------------------------------------|
B|------9--9--------9--9----------9--9--------9--9-----|
G|------9--9--------9--9----------9--9--------9--9-----|
D|-9-11------11--11------11--9-11------11--11------11--|
A|-----------------------------------------------------|
E|-----------------------------------------------------|

E|-----------------------------------------------------|
B|------7--7--------7--7----------7--7--------7--7-----|
G|------8--8--------8--8----------8--8--------8--8-----|
D|-7--9-------9---9------9---7--9-------9---9-------9--|
A|-----------------------------------------------------|
E|-----------------------------------------------------|

E|-----------------------------------------------------|
B|------9--9--------9--9----------9--9--------9--9-----|
G|------9--9--------9--9----------9--9--------9--9-----|
D|-9-11------11--11------11--9-11------11--11------11--|
A|-----------------------------------------------------|
E|-----------------------------------------------------|

E|-----------------------------------------------------|
B|------7--7--------7--7----------7--7--------7--7-----|
G|------8--8--------8--8----------8--8--------8--8-----|
D|-7--9-------9---9------9---7--9-------9---9-------9--|
A|-----------------------------------------------------|
E|-----------------------------------------------------|

 C#m7(9)
Tudo o que Deus tem pra mim
          F#m7
É bem melhor
         A/B
É bem maior 
          B/C#
É bem melhor

 C#m7(9)
Tudo o que Deus preparou
          F#m7
É bem melhor
        A/B
É bem maior 
          B/C#
É bem melhor


[Interlúdio]


             C#m7(9)
Tudo que eu sou

Tudo o que há em mim
              F#7
Tudo foi meu Pai que deu
               C#m7(9)
Tudo o que eu tenho

Não que eu mereça
           F#7
Tudo isso vem de Deus

             C#m7(9)
Tudo que eu sou

Tudo o que há em mim
              F#7
Tudo foi meu Pai que deu
               C#m7(9)
Tudo o que eu tenho

Não que eu mereça
           F#7
Tudo isso vem de Deus

Vem de Deus


C#m7
     Sozinho eu não consigo
        F#7
Pai, eu

Sem Ti eu não consigo
         C#m7(9)
Meu Deus
                       F#7
Sozinho eu não consigo


C#m7(9)
        Sozinho eu não consigo
        F#7
Pai, eu

Sem Ti eu não consigo
         C#m7(9)
Meu Deus
                      
Sozinho eu não consigo
           F#7
Eu não consigo

Não consigo


[Refrão]

 C#m7(9)
Tudo o que Deus tem pra mim
          F#m7
É bem melhor
         A/B
É bem maior 
          B/C#
É bem melhor

 C#m7(9)
Tudo o que Deus preparou
          F#m7
É bem melhor
         A/B
É bem maior 
          B/C#
É bem melhor

Ponte: C#m7(9)  F#m7  A/B  B/C#

  
[Refrão]

 C#m7(9)
Tudo o que Deus tem pra mim
          F#m7
É bem melhor
         A/B
É bem maior 
          B/C#
É bem melhor

 C#m7(9)
Tudo o que Deus preparou
          F#m7
É bem melhor
         A/B
É bem maior 
          B/C#
É bem melhor

[Final]

E|-----------------------------------------------------|
B|-----------------------------------------------------|
G|----------4-5-6--------------------------------------|
D|------------------------2-3-4---------2/4--2---------|
A|-2--3--4---------2-3-4-------------------------------|
E|-------------------------------0-1-2-----------------|

E|-----------------------------------------------------|
B|-----------------------------------------------------|
G|-----------------------------------------------------|
D|------------------2h4--2-----------------------------|
A|-2--3--4------2-4--------4-2-------------------------|
E|------------4----------------4-2-0--1--2-------------|
Acordes para:

    0 comentários

    mostrar mais comentários

    Conseguiu tocar?

    19 tocaram 11 ainda não

    Grave um vídeo tocando Tudo Que Eu Sou e mande pra gente!

    00:00 / 00:00
    outros vídeos desta música
    repetir qualidade Automático
    Outro vídeos desta música
    00:00 / 00:00
    Automático
    Capítulos
    • Tocando a música
    • Apresentação / Equipamentos
    • Progressão Harmônica - Parte A
    • Progressão Harmônica - Parte B
    • Tocando Introdução (Parte A)
    • Riff Introdução (Parte A)
    • Dicas Refrão
    • Tocando Refrão
    • Riff Refrão
    • Dicas Finais
    • Tocando Final
    • Riff Final
    • Encerramento
    OK