Cifra Club

Mucuripe

Elis Regina

Cifra: Principal (violão e guitarra)
tom: C
INTRODUÇÃO: 

e|---------------------------------------------------------------------------------------
B|-6~----6-6-6--5-6---8/10---8-6-5---5-5-5----3/5--6/9---6--5--3-----3-3-3---5-6-5---3---
G|-7~----7-7-7--5-7---7/9----7-7-5---5-5-5----3/5--7/10--7--5--3---3---3-3---5-7-5---2---
D|-----------------------------------------------------------------------------------0---
A|---------------------------------------------------------------------------------------
E|---------------------------------------------------------------------------------------


    A7            Dm
As velas do Mucuripe

                 G
Vão sair para pescar

E/G#                  Am
Vou levar as minhas mágoas

     E/G#         Am 
Prás águas fundas do mar

             B7    
Hoje à noite namorar

                 Bm5-/7
sem ter medo da saudade

E7            Am
sem vontade de casar

e|--8----7----5----7----5-----3-----1------------------
B|--10---8----6----8----6-----5-----3------------------
G|-----------------------------------------------------
D|-----------------------------------------------------
A|-----------------------------------------------------
E|-----------------------------------------------------


REPETINDO A PRIMEIRA PARTE CANTANDO E TOCANDO DE FUNDO

e|--7--8----10---12---13------13---12---10---------7---8---10---7/8----
B|--8--10---12---13---15------15---13---12---------8---10--12---8/10---
G|---------------------------------------------------------------------
D|---------------------------------------------------------------------
A|---------------------------------------------------------------------
E|---------------------------------------------------------------------
  
e|----------------------------------------------0p1-------------------
B|--5--6-----5----------------------------------------3---------------
G|--------7-----5---7---4---5----2----4----2/4--------2---------------
D|----------------------------------------------------0---------------
A|--------------------------------------------------------------------
E|--------------------------------------------------------------------


       A7          Dm
Calça nova de riscado
                G 
Paletó de linho branco

E/G#            Am
que até o mês passado

       E/G#             Am
lá no campo ainda era flor

                    F7+
Sob o meu chapéu quebrado

                     F#º
o sorriso ingênuo e franco 

                 B7
de um rapaz novo encantado

            Bm5-/7     E7
com vinte anos de amor

   Am             Dm
Aquela estrela é dela

C7/9    F7+     Bm5-/7     E9/7  
...vida, vento, vela, leva-me
        
daqui

e|--1-------------1-----0-------------1~~--------------------
B|--3-------------3-----2-------------3~~--------------------
G|--2-------------2-----0-------------2~~--------------------
D|--0-------------0-----2-------------0~~--------------------
A|----------------------0------------------------------------
E|-----------------------------------------------------------
00:00 / 00:00
Outros vídeos desta música
Repetir
Outros vídeos desta música
Composição de Antonio Carlos Belchior / Fagner
Colaboração e revisão:
  • Diego Martins
9.339 exibições
    • ½ Tom
    • A
    • Bb
    • B
    • C
    • Db
    • D
    • Eb
    • E
    • F
    • F#
    • G
    • Ab
  • Adicionar à lista

    0 comentários

    Ver todos os comentários

    Conseguiu tocar?

    0 Tocaram 0 Ainda não

    Grave um vídeo tocando Mucuripe e nos envie!

    Entre para oCifra Club PRO

    Tenha acesso a benefícios exclusivos no App e no Site

    • Chega de anúncios

    • Prioridade de compra em lançamentos

    • Mais recursos no app do Afinador

    • Atendimento Prioritário

    • Descontos nos produtos Cifra Club

    • Ajude a produzir mais conteúdo

    00:00 / 00:00

    Cifra Club Pro

    Aproveite o Cifra Club com benefícios exclusivos e sem anúncios
    Cifra Club Pro
    Aproveite o Cifra Club com benefícios exclusivos e sem anúncios
    OK