Cifra Club

Your Song

Elton John

Cifra: Principal (violão e guitarra)
Selo Cifra Club: esta cifra foi revisada para atender aos critérios oficiais da nossa Equipe de Qualidade.
tom: Eb (forma dos acordes no tom de C) Capotraste na 3ª casa
[Intro]  C  F/C  G/C  F/C

[Tab - Intro]

Parte 1 de 2
   C                F/C
E|-0-----0----------1-----1-----------------|
B|---1-------1--------1--------1------------|
G|-----0-------0--------2--------2----------|
D|------------------------------------------|
A|-3-------3--------3-------3---------------|
E|------------------------------------------|

Parte 2 de 2
   G/C               F/C
E|------------------------------------------|
B|---0---2----0------------1----------------|
G|-2---0--------0----2---2------2-----------|
D|---------------------3----------3---------|
A|-3-------3---------3-------3--------------|
E|------------------------------------------|

[Primeira Parte]

C                    F7M
  It's a little bit funny
G/B                 Em7
     This feeling inside
Am                  Am/G
   I'm not one of those who can
Am/F#         F7M
      Easily hide
C/G                    G
    I don't have much money
    E/G#            Am
But       boy if I did
C                Dm7
  I'd buy a big house where
F                G   G4  G
  We both could live

[Tab - Primeira Parte]

Parte 1 de 9
   C                 F7M
E|-0-----0-----------0-----0----------------|
B|---1-------1---------1-------3h1----------|
G|-----0-------0---------2---------2--------|
D|------------------------------------------|
A|-3-------3--------------------------------|
E|-------------------1-------1--------------|

Parte 2 de 9
   G/B               Em7
E|-3-----3-----------0-----0----------------|
B|---3--------3--------3-------3------------|
G|-----0--------0--------0-------0----------|
D|------------------------------------------|
A|-2-------2--------------------------------|
E|-------------------0-------0--------------|

Parte 3 de 9
   Am                Am/G
E|-0-----0-----------0-----0----------------|
B|---1--------1--------1--------1-----------|
G|-----2--------2--------2--------2---------|
D|------------------------------------------|
A|-0-------0--------------------------------|
E|-------------------3-------3--------------|

Parte 4 de 9
   Am/F#             F7M
E|-0-----0-----------0-----0----------------|
B|---1--------1--------1--------1-----------|
G|-----2--------2--------2--------2---------|
D|------------------------------------------|
A|------------------------------------------|
E|-2-------2---------1--------1-------------|

Parte 5 de 9
   C/G               G
E|-0-----0-----------3-----3----------------|
B|---1--------1--------0--------0-----------|
G|-----0--------0--------0--------0---------|
D|------------------------------------------|
A|------------------------------------------|
E|-3-------3---------3-------3--------------|

Parte 6 de 9
   E/G#              Am
E|-------------------0-----0----------------|
B|-5-----5-------------1--------1-----------|
G|---4--------4----------2--------2---------|
D|-----2--------2---------------------------|
A|-------------------0-------0--------------|
E|-4-------4--------------------------------|

Parte 7 de 9
   C                 Dm7
E|-0-----0-----------1-----1----------------|
B|---1--------1--------1--------1-----------|
G|-----0--------0--------2--------2---------|
D|-------------------0-------0--------------|
A|-3-------3--------------------------------|
E|------------------------------------------|

Parte 8 de 9
   F                 G
E|-1-----1-----------3-----3----------------|
B|---1-------1---------0-------0------------|
G|-----2-------2---------0-------0----------|
D|------------------------------------------|
A|------------------------------------------|
E|-1-------1---------3-------3--------------|

Parte 9 de 9
   G4       G
E|------------------------------------------|
B|-1------1-----0---------------------------|
G|-0------0-----0---------------------------|
D|------0-----0-----------------------------|
A|------------------------------------------|
E|-3--------3-------------------------------|

C              F7M
  If I was a sculptor
G/B                  Em7
    But then again, no
      Am            Am/G
Or a man who makes potions in a
Am/F#              F7M
      Travelling show
C/G                  G
    I know it's not much
              E/G#       Am
But it's the best I can do
C                Dm7
  My gift is my song
    F                 C  F/C  C
And   this one's for you

[Tab - Primeira Parte]

Parte 1 de 8
   C                 F7M
E|-0-----0-----------0-----0----------------|
B|---1-------1---------1-------3h1----------|
G|-----0-------0---------2---------2--------|
D|------------------------------------------|
A|-3-------3--------------------------------|
E|-------------------1-------1--------------|

Parte 2 de 8
   G/B               Em7
E|-3-----3-----------0-----0----------------|
B|---3--------3--------3-------3------------|
G|-----0--------0--------0-------0----------|
D|------------------------------------------|
A|-2-------2--------------------------------|
E|-------------------0-------0--------------|

Parte 3 de 8
   Am                Am/G
E|-0-----0-----------0-----0----------------|
B|---1--------1--------1--------1-----------|
G|-----2--------2--------2--------2---------|
D|------------------------------------------|
A|-0-------0--------------------------------|
E|-------------------3-------3--------------|

Parte 4 de 8
   Am/F#             F7M
E|-0-----0-----------0-----0----------------|
B|---1--------1--------1--------1-----------|
G|-----2--------2--------2--------2---------|
D|------------------------------------------|
A|------------------------------------------|
E|-2-------2---------1--------1-------------|

Parte 5 de 8
   C/G               G
E|-0-----0-----------3-----3----------------|
B|---1--------1--------0--------0-----------|
G|-----0--------0--------0--------0---------|
D|------------------------------------------|
A|------------------------------------------|
E|-3-------3---------3-------3--------------|

Parte 6 de 8
   E/G#              Am
E|-------------------0-----0----------------|
B|-5-----5-------------1--------1-----------|
G|---4--------4----------2--------2---------|
D|-----2--------2---------------------------|
A|-------------------0-------0--------------|
E|-4-------4--------------------------------|

Parte 7 de 8
   C                 Dm7
E|-0-----0-----------1-----1----------------|
B|---1--------1--------1--------1-----------|
G|-----0--------0--------2--------2---------|
D|-------------------0-------0--------------|
A|-3-------3--------------------------------|
E|------------------------------------------|

Parte 8 de 8
   F              C         F/C     C
E|-1-----1--------0----0----1-----0---------|
B|---1------1-----1----1----1-----1-------1-|
G|-----2------2------0------2-----0-----0---|
D|------------------------------------2-----|
A|----------------3------3-----3----3-------|
E|-1-------1--------------------------------|

[Refrão]

[Tab - Refrão]

   G4       G
E|------------------------------------------|
B|-1-----1------0---------------------------|
G|-0-----0------0---------------------------|
D|-----0------0-----------------------------|
A|------------------------------------------|
E|-3--------3-------------------------------|

G/B                  Am
    And you can tell everybody
Dm               F
   This is your song
G/B             Am
    It may be quite simple but
Dm                F
   Now that it's done
Am
   I hope you don't mind
Am/G
     I hope you don't mind
Am/F#                     Dm/F
      That I put down in words
     C/E      Dm7
How wonderful life is
       F             G    G4  G
While you're in the world

( C  F/C  G/C  F/C )

[Segunda Parte]

C               F7M
  I sat on the roof
G/B                     Em7
    And kicked off the moss
       Am         Am/G
But a few of the verses
                   Am/F#     F7M
Well, they've got me quite cross
C/G                      G
    But the sun's been quite kind
E7/G#                    Am
      While I wrote this song
C                       Dm7
  It's for people like you that
F          G        G4  G
  Keep it turned on

C                  F7M
  So excuse me forgetting
G/B                  Em7
    But these things I do
Am                  Am/G
   You see I've forgotten
             Am/F#            F7M
If they're green or they're blue
C/G                 G
   Anyway the thing is
        E7/G#      Am
What I really mean
C                 Dm7
  Yours are the sweetest eyes
F            C   F/C  C
  I've ever seen

[Refrão]

G/B                  Am
    And you can tell everybody
Dm               F
   This is your song
G/B             Am
    It may be quite simple but
Dm                F
   Now that it's done
Am
   I hope you don't mind
Am/G
     I hope you don't mind
Am/F#                     Dm/F
      That I put down in words
     C/E      Dm7
How wonderful life is
       F             G    G4  G
While you're in the world

Am
   I hope you don't mind
Am/G
     I hope you don't mind
Am/F#                     Dm/F
      That I put down in words
     C/E       Dm7
How wonderful life is
       F             C
While you're in the world

[Final] F/C  G/C  F/C  C
00:00 / 00:00
Outros vídeos desta música
Repetir
Outros vídeos desta música
907.271 exibições
  • Simplificar cifra
    • ½ Tom
    • A
    • Bb
    • B
    • C
    • Db
    • D
    • Eb
    • E
    • F
    • F#
    • G
    • Ab
  • Adicionar à lista

Afinação da cifra

Afinador online

    0 comentários

    Ver todos os comentários

    Entre para o Cifra Club PRO

    Tenha acesso a benefícios exclusivos no App e no Site

    • Chega de anúncios

    • Mais recursos no app do Afinador

    • Atendimento Prioritário

    • Aumente seu limite de lista

    • Ajude a produzir mais conteúdo

    00:00 / 00:00
    Capítulos
    • Apresentação
    • Tocando a Música
    • Dicas Iniciais
    • Acordes da Música
    • Ensinando a Intro
    • Dicas da Primeira Parte
    • Acordes da Primeira Parte
    • Ensinando a Primeira Parte - Primeira Estrofe
    • Ensinando a Variação da Primeira Parte - Segunda E
    • Acordes do Refrão
    • Ensinando o Ritmo do Refrão
    • Ensinando o Dedilhado do Refrão
    • Dicas da Segunda Parte
    • Ensinando a Segunda Parte
    • Dicas Finais
    • Encerramento

    Cifra Club Pro

    Aproveite o Cifra Club com benefícios exclusivos e sem anúncios
    Cifra Club Pro
    Aproveite o Cifra Club com benefícios exclusivos e sem anúncios
    OK