Cifra Club

Mi Vida Sin T Solo

Enigma

Tab de baixo: Principal
solo

G|-----------------------------------------|
D|-----------------------------------------|
A|--------3-------------------5-7-5-7-5-7--|
E|--5-5-5---5-3-0-1-3---5-5-5--------------|


G|-----------------------------------|
D|-----------------------------------|
A|--------3--------------------------|
E|--5-5-5---5-3-0-1-3---5-5-5--0/5---|

G|-----------------------------------------|
D|-----------------------------------------|
A|--------3-------------------5-7-5-7-5-7--|
E|--5-5-5---5-3-0-1-3---5-5-5--------------|

G|---------------------------------------------|
D|------------------------------5--------------|
A|--------3----------------------7-5-7-5-------|
E|--5-5-5---5-3-0-1-3---5-5-5------------8-5~--|
Compositor não encontrado.
405 exibições

0 comentários

Ver todos os comentários

Conseguiu tocar?

0 Tocaram 0 Ainda não

Grave um vídeo tocando Mi Vida Sin T Solo e nos envie!

00:00 / 00:00
Outros vídeos desta música
Repetir Qualidade Automático
Outros vídeos desta música
00:00 / 00:00
Automático

Cifra Club Pro

Aproveite o Cifra Club com benefícios exclusivos e sem anúncios
Cifra Club Pro
Aproveite o Cifra Club com benefícios exclusivos e sem anúncios
OK