Cifra Club

Aprenda

Parece Q

Epidemia Tipo 5

Cifra: Principal (violão e guitarra)
tom: C
Intro: Em  C

E|-------------------------------------------------------------|
B|--------------12--------12--11--12--13-----------------------|
G|-------9------------------------------------------12~--------|
D|-------------------------------------------------------------|
A|-------------------------------------------------------------|
E|-------------------------------------------------------------|

E|-------------------------------------------------/15~--------|
B|--------------12--------12--11--12--13-----------------------|
G|-------9-----------------------------------------------------|
D|-------------------------------------------------------------|
A|-------------------------------------------------------------|
E|-------------------------------------------------------------|

 Em
Parece que, que tudo acontece ao mesmo tempo,
  C
Parece que, as coisas não são como eu penso.
 Em
Parece que, o mundo gira como um relógio,
  C
Parece que, o relógio louco gira ao mundo

       Em                   C
E|-----7-------------------8----------|
B|-----8-------------------8----------|
G|-----9-------------------9----------|
D|-----9-------------------10---------|
A|-----7-------------------10---------|
E|-------------------------8----------|

Em
Parece que, quem é bom não tem valor,
  C
Imaginou ser um bom menino ser um cantor.
 Em
Parece que, que TV e o rádio deixou fora do horário,
  C
Parece que, que eu nem sei.

Refrão:
                 Em                   C
Nem sei quem eu sou, Nem sei quem eu sou.
                 Em                   C
Nem sei quem eu sou, Nem sei quem eu sou.
Colaboração e revisão:
  • Natan Soares
75 exibições
    • ½ Tom
    • A
    • Bb
    • B
    • C
    • Db
    • D
    • Eb
    • E
    • F
    • F#
    • G
    • Ab
  • Adicionar à lista

    0 comentários

    Ver todos os comentários

    Conseguiu tocar?

    0 Tocaram 0 Ainda não

    Grave um vídeo tocando Parece Q e nos envie!

    00:00 / 00:00
    outros vídeos desta música
    repetir qualidade Automático
    Outros vídeos desta música
    00:00 / 00:00
    Automático

    Cifra Club Pro

    Aproveite o Cifra Club com benefícios exclusivos e sem anúncios
    Cifra Club Pro
    Aproveite o Cifra Club com benefícios exclusivos e sem anúncios
    OK