Cifra Club

Tears in Heaven

Eric Clapton

Cifra: Simplificada
exibições 332.839
Tom: G
Intro: A  E  F#m  F#m/E  D  E

Primeira Parte:

A             E      F#m  F#m/E
  Would you know my name
D       A             E
  If I saw you in heaven?
A           E      F#m  F#m/E
  Would it be the same
D       A             E
  If I saw you in heaven?

Segunda Parte:

F#m              Db/F
    I must be strong
A7/E           F#7
     And carry on
           Bm7           E
'Cause I know I don't belong

Here in heaven

(repete intro)

Primeira Parte - variação na letra:

A            E       F#m  F#m/E
  Would you hold my hand
D       A             E
  If I saw you in heaven?
A            E        F#m  F#m/E
  Would you help me stand
D       A             E
  If I saw you in heaven?

Segunda Parte - variação na letra

F#m               Db/F
    I'll find my way
A7/E                    F#7
     Through night and day
           Bm7             E
'Cause I know I just can stay

Here in heaven

(repete intro)

Terceira Parte:

C            G/B      Am7
  Time can bring you down
          D          G   D   Em
Time can bend your knees
C            G/B       Am7
  Time can break your heart
          D        G    D
Have you begging please
          E
Begging please

(repete intro)

Segunda Parte - variação na letra

F#m             Db/F
    Beyond the door
A7/E                    F#7
     There's peace I'm sure
        Bm7                E
And I know there'll be no more

Tears in heaven

(repete intro)

Primeira Parte:

A             E      F#m  F#m/E
  Would you know my name
D       A             E
  If I saw you in heaven?
A           E      F#m  F#m/E
  Would it be the same
D       A             E
  If I saw you in heaven?

Segunda Parte:

F#m              Db/F
    I must be strong
A7/E           F#7
     And carry on
           Bm7            E
'Cause I know I don't belong

Final:

            A   E  F#m
Here in heaven
  F#m/E    Bm7           E
'Cause I know I don't belong
            A   E   F#m   F#m/E   D   E   A
Here in heaven

Dedilhado Intro:

        A        E       F#m      F#m/E
E|------0---0----0---0----2---2----2---2---|
B|------2---2----0---0----2---2----2---2---|
G|------2---2----1---1----2---2----2---2---|
D|-----------------------------------------|
A|------0-0---0----------------------------|
E|--0h2----------0-0---0--2-2---2--0-0---0-|

    D        E        A
E|--2---2----0---0----0---0----0---0-------|
B|--3---3----0---0----2---2----2---2-------|
G|--2---2----1---1----2---2----2---2-------|
D|--0-0---0--------------------------------|
A|--------------------0-0---0--0-0---------|
E|-----------0-0---0-----------------------|

Dedilhado Primeira Parte:

        A        E       F#m       F#m/E
E|------0---0----0---0----2---2----2---2---|
B|------2---2----0---0----2---2----2---2---|
G|------2---2----1---1----2---2----2---2---|
D|-----------------------------------------|
A|------0-0---0----------------------------|
E|--0h2----------0-0---0--2-2---2--0-0---0-|

    D        A        E
E|--2---2----0---0----0---0----0---0-------|
B|--3---3----2---2----0---0----0---0-------|
G|--2---2----2---2----1---1----1---1-------|
D|--0-0---0--------------------------------|
A|-----------0-0---0-----------------------|
E|--------------------0-0---0--0-0---0-----|

Dedilhado Segunda Parte:

    F#m               Db/F
E|--2---2----2---2----1---1----1---1-------|
B|--2---2----2---2----2---2----2---2-------|
G|--2---2----2---2----1---1----1---1-------|
D|-----------------------------------------|
A|-----------------------------------------|
E|--2-2---2--2-2---2--1-1---1--1-1---1-----|

    A7/E              F#7
E|--0---0----0---0-------------------------|
B|--2---2----2---2----2---2----2---2-------|
G|--0---0----0---0----3---3----3---3-------|
D|--------------------2---2----2---2-------|
A|-----------------------------------------|
E|--0-0---0--0-0---0--2-2---2--2-2---2-----|

    Bm7               E
E|--2---2----2---2----0---0----0---0-------|
B|--3---3----3---3----0---0----0---0-------|
G|--2---2----2---2----1---1----1---1-------|
D|-----------------------------------------|
A|--2-2---2--2-2---2-----------------------|
E|--------------------0-0---0--0-0---0-----|

Dedilhado Terceira Parte:

    C       G/B      Am7       D
E|--0---0----3---3----0---0----2---2-------|
B|--1---1----3---3----1---1----3---3-------|
G|--0---0----0---0----0---0----2---2-------|
D|-----------------------------0-0---0-----|
A|--3-3---3--2-2---2--0-0---0--------------|
E|-----------------------------------------|

    G        D        Em
E|--3---3----2---2----0---0----0---0-------|
B|--3---3----3---3----0---0----0---0-------|
G|--0---0----2---2----0---0----0---0-------|
D|-----------0-0---0-----------------------|
A|-----------------------------------------|
E|--3-3---3-----------0-0---0--0-0---0-----|

    C       G/B      Am7       D
E|--0---0----3---3----0---0----2---2-------|
B|--1---1----3---3----1---1----3---3-------|
G|--0---0----0---0----0---0----2---2-------|
D|-----------------------------0-0---0-----|
A|--3-3---3--2-2---2--0-0---0--------------|
E|-----------------------------------------|

    G        D        E
E|--3---3----2---2----0---0----0---0-------|
B|--3---3----3---3----0---0----0---0-------|
G|--0---0----2---2----1---1----1---1-------|
D|-----------0-0---0-----------------------|
A|-----------------------------------------|
E|--3-3---3-----------0-0---0--0-0---------|
Acordes para:
    Composição: Eric Clapton / Will JenningsColaboração e revisão:
    • Leandro Sandim

    0 comentários

      mostrar mais comentários
      00:00 / 00:00
      outros vídeos desta música
      repetirqualidadeautomática
      Outro vídeos desta música
        00:00 / 00:00
        automática
        Capítulos
        • Tocando a Música
        • Dicas Iniciais / Equipamentos
        • Acordes da Introdução
        • Tocando a Introdução
        • Ensinando a Introdução
        • Dicas para a Primeira Parte
        • Tocando a Primeira Parte
        • Ensinando a Primeira Parte
        • Acordes da Segunda Parte
        • Dicas para a Segunda Parte
        • Tocando a Segunda Parte
        • Acordes da Terceira Parte
        • Dicas para a Terceira Parte
        • Tocando a Terceira Parte
        • Encerramento
        • Ficha Técnica / Erros de Gravação
        OK