Cifra Club

Chuva de Graça

Eros Biondini

Cifra: Principal
exibições 68.395
Tom: E
Intro 2x: E  B  C#m  A (2x)

E                B
Há uma chuva de graça aqui
C#m            A9
Está chovendo sobre todos nós
E                   B9
E quem mais se entregar
             A9
Mais se molhará

E               B9
Há uma semente pra germinar
C#m             A9
E muitos frutos a se produzir
E/G#             B9
Na terra do coração
              A    B7
Derrama tua graça
          E                B9
Chuva de graça  pedimos a Ti
         C#m              A9
Chuva de graça derrama em nós
         E              B9
Chuva de graça neste lugar
      A E/G# F#m E
Derrama----------a!

          E                B9
Chuva de graça  pedimos a Ti
         C#m              A9
Chuva de graça derrama em nós
         E              B9      A
Chuva de graça neste lugar  Derrama!

Passagem: E  B  C#m  A  (2x)

E|----------------------|
B|----------------------|
G|-------------------9--|
D|-7-6-4-------------9--|
A|--------7-4--------7--|
E|-------------7-5------|

Repete Toda a Música

Solo: C#m   A   C#m   A   F#m   E/G#   A   B

E|------------------------|------------------------|
B|-12/14--14-12-----12h14-|-7-9-10--9-7/5--7/9-7-5-|
G|---------------13-------|------------------------|
D|-------------------------------------------------|
A|-------------------------------------------------|
E|-------------------------------------------------|

E|-12(Tap com a palheta)-11-9-7-9-7-5-4--|-5/7-5-4--4h5p4--------------|
B|---------------------------------------|----------------7/9-7--5(Ha)-|
G|---------------------------------------|-----------------------------|
D|---------------------------------------|-----------------------------|
A|---------------------------------------|-----------------------------|
E|---------------------------------------|-----------------------------|

          E                B9
Chuva de graça  pedimos a Ti
         C#m              A9
Chuva de graça derrama em nós
         E              B9
Chuva de graça neste lugar
      A E/G# F#m E
Derrama----------a!

          E                B9
Chuva de graça  pedimos a Ti
         C#m              A9
Chuva de graça derrama em nós
         E              B9      A
Chuva de graça neste lugar  Derrama!

Final: E B9 C#m A9 (2x) E
Acordes para:

    0 comentários

      mostrar mais comentários

      Conseguiu tocar?

      3tocaram0ainda não

      Grave um vídeo tocando Chuva de Graça e mande pra gente!

      00:00 / 00:00
      outros vídeos desta música
      repetirqualidadeautomática
      Outro vídeos desta música
        00:00 / 00:00
        automática
        OK