Notificações Amigos pendentes

      Escape The Fate

      Let It Go

      504 exibições
      Tom: A (com acordes na forma de )
      Intro:
      Gtr.I:
      
      E|--------------------------------------------------------------------------|
      B|--------------------------------------------------------------------------|
      G|-----------------------------------------(twelves)-----------(elevens)----|
      D|12-12--13-10---10-10-12-8----8--8--10-8--12121212-7-7-7-7-1111111111111111|
      A|10-10--11-8----8--8--10-6----6--6--8--6--10101010-5-5-5-5-9-9-9-9-9-9-9-9-|
      E|------------------------------------------(tens)--------------------------|
      
                                          (x2)
      Gtr.II:
      
      E|--------------------------------------------------|\
      B|--------------------------------------------------| \
      G|--8-8--8------------------------------------------|  \
      D|--8-8--8-8--8-8--8-8-8-8-8-8--8-10-1010-10101010--|   \
      A|--6-6--6-8--8-8--8-8-8-8-8-8--8-10-1010-10101010--|    \
      E|---------6--6-6--6-6-6-6-7-7--7-8--8-8--8-8-8-8---|     \
      
                                                                 \
      
      E|---------------------------------------------------|    (x2)
      B|---------------------------------------------------|     /
      G|---------8--8-8--8-8-8-8---------------------------|    /
      D|--6-6--6-8--8-8--8-8-8-8-8-8--8-8-8-8-8-8-8-8-8-8--|   /
      A|--6-6--6-6--6-6--6-6-6-6-8-8--8-8-8-8-8-8-8-8-8-8--|  /
      E|--4-4--4-----------------6-6--6-6-7-7-7-7-7-7-7-7--| /
      
      
      Verse:
      Gtrs.I&II:
      E|----------------------------------------------------------------|
      B|----------------------------------------------------------------|
      G|----------------------------------------------------------------|
      D|--5-5--5---------------8-8--4-5-5--5----------------8--8-8-8-8--|
      A|--3-3--3-5-5--5-6-6--6-6-6--2-3-3--3--5-5--5-6-6--6-6--6-6-6-6--|
      E|---------3-3--3-4-4--4----------------3-3--3-4-4--4-------------|
      Pre-Chorus
      E|------------------------------------------------------------------|
      B|------------------------------------------------------------------|
      G|------------------------------------------------------------------| (x2)
      D|-5-5-5-5-5-5-5-5---------------------------------6-6-6-6-4-4-4-4--|
      A|-3-3-3-3-3-3-3-3-5-5-5-5-5-5-5-5-6-6-6-6-6-6-6-6-6-6-6-6-2-2-2-2--|
      E|-----------------3-3-3-3-3-3-3-3-4-4-4-4-4-4-4-4------------------|
         . . . . . . . . . . . . . . . . . . . . . . . . . . . . . . . .(Palm Mute)
      
      
      E|--------------------------------------------------------------------------|
      B|--------------------------------------------------------------------------|
      G|--------------------------------------------------------------------------|
      D|------------------------------------------5--5----5--5~~~~~~--------------|
      A|---6--6----6--6-6----6-6-6-6-6-6----------3--3----3--3~~~~~~--------------|
      E|---4--4----4--4-4----4-4-4-4-4-4------------------------------------------|
      
      
      Chorus
      Gtr.I:
      
      E|--------------------------------------------------------------------------|
      B|--------------------------------------------------------------------------|
      G|-----------------------------------------(twelves)-----------(elevens)----|
      D|12-12--13-10---10-10-12-8----8--8--10-8--12121212-7-7-7-7-1111111111111111|
      A|10-10--11-8----8--8--10-6----6--6--8--6--10101010-5-5-5-5-9-9-9-9-9-9-9-9-|
      E|------------------------------------------(tens)--------------------------|
      
                                          (x2)
      Gtr.II:
      
      E|--------------------------------------------------|\
      B|--------------------------------------------------| \
      G|--8-8--8------------------------------------------|  \
      D|--8-8--8-8--8-8--8-8-8-8-8-8--8-10-1010-10101010--|   \
      A|--6-6--6-8--8-8--8-8-8-8-8-8--8-10-1010-10101010--|    \
      E|---------6--6-6--6-6-6-6-7-7--7-8--8-8--8-8-8-8---|     \
      
                                                                 \
      
      E|---------------------------------------------------|    (x2)
      B|---------------------------------------------------|     /
      G|---------8--8-8--8-8-8-8---------------------------|    /
      D|--6-6--6-8--8-8--8-8-8-8-8-8--8-8-8-8-8-8-8-8-8-8--|   /
      A|--6-6--6-6--6-6--6-6-6-6-8-8--8-8-8-8-8-8-8-8-8-8--|  /
      E|--4-4--4-----------------6-6--6-6-7-7-7-7-7-7-7-7--| /
      
      
      Solo:
      Gtr.I  ^^1 Step Bend
      
      E|----------------------------------------10-----| \
      B|--8----------------------9-12-9-12-9-12----13--|  \
      G|--10^^r-8-10-7~~---7-10------------------------|   \
      D|------------------9----------------------------|    \
      A|-----------------------------------------------|     \
      E|-----------------------------------------------|      \
      
                                                               \
      Gtr.II                                                   /
      
      E|-----------------------------------------------|      /
      B|-----------------------------------------------|     /
      G|--8--------------------------------------------|    /
      D|--8----------8-------------8---------------10--|   /
      A|--6----------8-------------8---------------10--|  /
      E|-------------6-------------7---------------8---| /
      
      
      Gtr.I                      ^1/2 Step Bend
      
      E|--------------------8-8-------11--11---|\
      B|------------------9---------------11^--| \
      G|----------------8-------10-10----------|  \
      D|-------------10------------------------|   \
      A|-----8-10-11---------------------------|    \
      E|--11-----------------------------------|     \
      
                                                      \
      Gtr.2                                           /
      
      E|---------------------------------|           /
      B|---------------------------------|          /
      G|---------------------------------|         /
      D|-------------6----------------1--|        /
      A|-------------6----------------1--|       /
      E|-------------4-------------------|      /
      
      
      Gtr.I
      
      E|-----------------------10-11-10----10-13^^r-11-10-1--|\
      B|--------11-------11-12----------13-------------------| \
      G|--12-13----13-13-------------------------------------|  \
      D|-----------------------------------------------------|   \
      A|-----------------------------------------------------|    \
      E|-----------------------------------------------------|     \
      
                                                                    \
      Gtr.II                                                         \
      
      E|-----------------------------------------------------------|  \
      B|-----------------------------------------------------------|   \
      G|-----------------------------------------------------------|   /
      D|--8-8-8-8-8-8-8-8-8-8-8-8-8-8-8-8-8-8-8-8-8-8-8-8-8-8-8-8--|  /
      A|--8-8-8-8-8-8-8-8-8-8-8-8-8-8-8-8-8-8-8-8-8-8-8-8-8-8-8-8--| /
      E|--6-6-6-6-6-6-6-6-6-6-6-6-6-6-6-6-7-7-7-7-7-7-7-7-7-7-7-7--|/
      
      
      
      Gtr.I               (9 10 12)                  ^^Full Step Bend
      
      E|--10~~-13-10~~-----------------------------18^^r-16-16-16h18p16--15-----|
      B|-------------------------91012~~-15-13-13~---------------------18---16--|
      G|--------------------91012-----------------------------------------------|
      D|---------------91012----------------------------------------------------|
      A|------------------------------------------------------------------------|
      E|------------------------------------------------------------------------|\
      
                                                                                  \
      Gtr.II                                                                      /
      
      E|------------------------------------------------------------------------|/
      B|------------------------------------------------------------------------|
      G|------------------------------------------------------------------------|
      D|--8-8--8-----------------------------------------------8--8-8--8-8-8-8--|
      A|--6-6--6-8--8-8--8-8-8-8-8-8--8-10-1010-101010106-6--6-6--6-6--6-6-6-6--|
      E|---------6--6-6--6-6-6-6-7-7--7-8--8-8--8-8-8-8-4-4--4------------------|
      
      
      Gtr.I
      
      E|--16181615---------16181615-------16181615-------16181615-----------------|
      B|----------181615~~----------181615---------181615---------18161516~~~~~~~-|
      G|--------------------------------------------------------------------------|
      D|--------------------------------------------------------------------------|
      A|--------------------------------------------------------------------------|
      E|--------------------------------------------------------------------------|
      
      
      E|--------------------------------------------------------------------------|
      B|--------------------------------------------------------------------------|
      G|--------------------------------------------------------------------------|
      D|--------------------------------------------------------------------------|
      A|--8--8--8--8--8--8--8--8--8--8--8--8--8--8--8--8--8--8--8--8--8--10~~~~~--|
      E|--6--6--6--6--6--6--6--6--6--6--6--6--6--6--6--6--6--6--6--6--6--8-~~~~~--|
      
        Composição: Escape the Fate / John FeldmannColaboração e revisão:
        • giihribeiro

        Comentários 0

        140 .
        140 cancelar

        conseguiu tocar?

        covers

        Grave um vídeo tocando Let It Go e mande pra gente!

        Ex.: http://www.youtube.com/watch?v=0IvSvIwGdwk
        ver covers de outras músicas »
        0:00 / 0:00

        Capítulos

          1 versão de violão dificuldade exibições contribuição e correção
          1 versão de guitarra dificuldade exibições contribuição e correção
          1 versão de cavaco dificuldade exibições contribuição e correção
          1 versão de teclado dificuldade exibições contribuição e correção
          play/pausefechar subir/descer velocidade
          6ª corda E5ª corda A4ª corda D3ª corda G2ª corda B1ª corda E
            acordes
            publicidade
            fechar
            ok